Song name
# A B C D E F G H I J K L M N O P Q R S T U V W X Y Z

Orianthi - Whats It Gonna Be chords

Highlighted       Show chord diagrams
Orianthi
What's It Gonna Be
Believe
2009
Submitted by: paramore_fans@yahoo.com

This is 100% correct!!! watch Orianthi played this song live
http://www.youtube.com/watch?v=txTIVoR-O-8

Key: C

Tuning: Standard EADGBe

Chords used:
G -  320003
Am - x02210
C -  x32010
D  - xx0232
Em - 022000


Intro: G-A-C--C-A-G--A--D--C---|
G-A-C--C-A-G--A--A-A-G-A-------|
G-A-C--C-A-G--A--D--C----------|
G-A-C--C-A-G--A--A-A-G-A-------|


Guitar 2:
e|------------------------------------------------|
B|------------------------------------------------|
G|------------------------------------------------|
D|----------------------------------------7-7-5-7-|
A|---0-3--3-0----0--5--3----0-3--3-0---0--7-7-5-7-|
E|-3----------3-----------3----------3----5-5-3-5-|


Verse 1:
Am             G
  well he don't need me
D               Am
  cause he wants  to be free
Am            G
  well he left me right
D                  Am
  went out the door  last night


Refrain 1:
G    Am C     D
well he calls me
G     Am C     D
cause he needs me
G Am   C    D Em
i feel torn inside


Chorus:
                   Am      C
so what's it gonna be this time
                    G
cause all you wanna see is me
D                       Am
cry yeah i don't wanna stay
 C                   G
around cause all you do is you
         D
bring me down so what's
it gonna be baby now


(Repeat Intro but only once)


Verse 2:
Am            G        D
  well i don't need you cause
      Am            Am
i want  this through  yeah i
    G        D
left you with with
          Am
everything  i could give


Guitar 2: While doing Verses
e|-5-5-5-5-5-5-5-5-3-3-3-3-3-3-3-3-----------|
B|-------------------------------------------|
G|-------------------------------------------|
D|-------------------------------------------| x4
A|-------------------------------------------|
E|-------------------------------------------|


Refrain 2:
G   Am  C    D
and you text me
G     Am  C    D
cause you need me
G Am   C     D  Em
i just won't reply


(Repeat Chorus twice)


Guitar Solo: Am-C-G-D- x2

Guitar 2: Solo, tr means tremolo
e|-------------------------------------------------12---------------------------|
B|-8-10--3/8--3/7---------------------8h10--10h12---------12-13-15-13-----------|
G|------------------------7----------------------------14-------------14--14tr--|
D|-----------------7-9-10---10-7h9p7--------------------------------------------|
A|------------------------------------------------------------------------------|
E|------------------------------------------------------------------------------|


Verse 3:
Am             G
  well he don't need me
D               Am
  cause he wants  to be free
Am            G   Am(hold)
  well he left me right


(Repeat Chorus twice)


Outro:

so what's it gonna be
so what's it gonna be


Guitar 2: Outro
e|------------------------------------|
B|------------------------------------|
G|---0-----------------0--------------|
D|-2---2-0-----------2---2-0----0-1-2-| x3
A|---------3------0----------3--------|
E|------------3-4---------------------|

e|------------------|
B|------------------|
G|---0--------------|
D|-2---2-0----------|
A|---------3------0-|
E|------------3-4---|
Tap to rate this tab
# A B C D E F G H I J K L M N O P Q R S T U V W X Y Z