Song name
# A B C D E F G H I J K L M N O P Q R S T U V W X Y Z

Orianthi - Think Like A Man chords

Highlighted       Show chord diagrams
Orianthi
Think Like A Man
Believe
2009
Submitted by: paramore_fans@yahoo.com

Key: G

Tuning: Drop D

Chords used: Drop D Only
Em - 222xxx
C -  x355xx
G -  555xxx
F# - 444xxx
D -  000xxx
Am - 777xxx
B  - 999xxx

Chords used: for Standard EADGBe
Em - 022000
C -  x32010
G -  320033
F# - 244322
D -  000xxx
Am - x02210
Bm - x24442


Intro: Em--G-D-Am-Em--D--C--


Verse 1:
Em
Must be you if the
G     D     Am
phone don't ring
Em          D      C
Here i am obsessing
Em
He loves me yeah
   G     D  Am
he loves me not
  Em
I tell myself i should
D          C       Bm
just learn to shut up
No I need to be like you


Chorus:
  Am
Ignore my emotions
 Em
emotions are dumb
Am
Surfing the channels
        Em
till my senses are numb
D                     B
Shorten my attention span
I should think like a man


Mini Solo: G-F#-Em-G-F#-Em-- x2

Guitar 2:
e|-3-2-0-3-2-0--3-2-0-3-2-0-|
B|--------------------------|
G|--------------------------|
D|--------------------------|
A|--------------------------|
D|--------------------------|

         Am
Stick my foot in my
          Em
mouth and just run away
Am
Turn up my sound
            Em
i ain't got nothing to say
D                        B
Disappear and not give a damn
                         G-F#-Em-G-F#-Em-Am
I should think like a man
                         G-F#-Em-G-F#-Em-Am
I should think like a man

Guitar 2:
e|-3-2-0-3-2-0-0--3-2-0-3-2-0-0-|
B|------------------------------|
G|------------------------------|
D|------------------------------|
A|------------------------------|
D|------------------------------|


Verse 2:
  Em         G    D  Am
Oblivious it must be nice
Em                  D       C
Nothing spoils your appetite
     Em
Your checking out
      G      D  Am
every blonde in sight
     Em
Your telling me that
     D        C     B
it's just all in my mind
Yeah i want to be like you


(Repeat Chorus )


Bridge:
G                     C
  I could save myself so much trouble
G                     C
  I could save myself this heartache
G              C
  But it's the best advice
  B
I know I'll never ever take


Main Solo: Em-Em-D-Em-- x3, Em-Em-D-Em-D--C--

Guitar 2: Solo
e|-------------------------------------------|
B|---------3h5p3h5p3h5p3h5p3h5p3h5p3h5p3h5/7-|
G|-------------------------------------------|
D|-2-2-0-2-----------------------------------|
A|-2-2-0-2-----------------------------------|
D|-2-2-0-2-----------------------------------|

e|---------5h7p5h7p5h7p5h7-----------------------------------------|
B|-------------------------7h8p7h8---------------------------------|
G|---------------------------------7h9p7h9-------------------------|
D|-2-2-0-2---------------------------------0h2---------------------|
A|-2-2-0-2-------------------------------------0h2h3p2p0-----------|
D|-2-2-0-2-----------------------------------------------5p0h2p0h2-|

     b means bend
e|---------5b--5b--5b--5b--7b--7b-|
B|--------------------------------|
G|--------------------------------|
D|-2-2-0-2------------------------|
A|-2-2-0-2------------------------|
D|-2-2-0-2------------------------|

e|------------------------------10-10-10-10-12-12-12-12-|
B|-5--7-8p7---8p7---8p7---8p7---------------------------|
G|----------7-----7-----9-----9-------------------------|
D|------------------------------------------------------|
A|------------------------------------------------------|
D|------------------------------------------------------|

e|-10p0h12p0h10p0h12p0--------12h15p0-|
B|---------------------8h10p8---------|
G|------------------------------------|
D|------------------------------------|
A|------------------------------------|
D|------------------------------------|

B
  Yea I got to I need to

I want to be like you


(Repeat Chorus)


Outro:
                         G-F#-Em-G-F#-Em-Am
I should think like a man
                         G-F#-Em-G-F#-Em-Am
I should think like a man


G-F#-Em-G-F#-Em-Am-- x3, Am(hold) while doing the Outro Solo!!!
Tap to rate this tab
# A B C D E F G H I J K L M N O P Q R S T U V W X Y Z