Song name
# A B C D E F G H I J K L M N O P Q R S T U V W X Y Z

Orianthi - According To You tab

Theres already some pretty good tabs for the main solo so i thought id just tab a
few of the licks she puts in.
fb= full bend
hrf= half bend,release, then full bend
~= vibrato
h= hammer on
xh= cross string hammer on
p= pull off
/=slide

1. That scale she puts in at the end of the first verse.
e------------------------------------13-15hrf~-|
B-----------------------------13-15------------|
G-----------------------13-15------------------|
D----------------13-15-------------------------|
A-------13-14-15-------------------------------|
E--13-15---------------------------------------|

2. The little lick she puts in at the end of the first chorus.
e---------------------------------13h15p13----15fb~-|
B----------------------------13h15--------xh15------|
G-------10h12p10----10h12fb~------------------------|
D--10h12--------xh12--------------------------------|
A---------------------------------------------------|
E---------------------------------------------------|

3. The other lick she does in the second verse.
e------------------------------------------------------------/15fb~-|
B-13p10h13p10h13p10h13p10h13p10h13p10h13p10h13p10h13p10h13p10-------|
G-------------------------------------------------------------------|
D-------------------------------------------------------------------|
A-------------------------------------------------------------------|
E-------------------------------------------------------------------|

Hope This Helps
Tap to rate this tab
# A B C D E F G H I J K L M N O P Q R S T U V W X Y Z