Song name
# A B C D E F G H I J K L M N O P Q R S T U V W X Y Z

Orianthi - According To You tab

----------------------------------------------------------------------------
			     According to you - Orianthi
----------------------------------------------------------------------------
Tabbed by: Kevin =D
Email: Just make ur own changes, i kno its not 100% right but its what i got! please 
this is really my first tab and i thought it should be something a little challenging  :D

Tuning: Drop D

Verse 1:

e|-------|------|-----|-----|----------------------------------------------|
B|-------|------|-----|-----|----------------------------------------------|
G|-------|--5---|--7--|-----|----------------------------------------------|
D|---3---|--5---|--7--|--8--|-repeat 3x------------------------------------|
A|---3---|--3---|--5--|--8--|----------------------------------------------|
D|---3---|------|-----|--8--|----------------------------------------------|
    **Palm Mute**

e|-------|------|--------|-------------------------------------13-14-15-15b|
B|-------|------|-------------------------------------13-14-15-------------|
G|-------|--5---|----------------------------13-14-15----------------------|
D|---3---|--5---|-------------------13-14-15-------------------------------|
A|---3---|--3---|----------13-14-15----------------------------------------|
D|---3---|------|-13-14-15-------------------------------------------------|
                      **Tremolo picking Fast**

Chorus:

e|-----|------|-----|-----|-----------|
B|-----|------|-----|-----|-----------|
G|-----|------|-----|-----|-----------|
D|--8--|--10--|--0--|--5--|-repeat 2x-|
A|--8--|--10--|--0--|--5--|-----------|
D|--8--|--10--|--0--|--5--|-----------|


e|------------|-----------|--------------------------------|
B|------------|-----------|--------------------------------|
G|--9--9/10/9-|-repeat 3x-|-5-5-5--9-9/10/9-9/10/14/17/21--|
D|--x--x/x-/x-|-----------|-x-x-x--x-x/x-/x-x/x-/x-/x-/x---|
A|--7--7/8-/7-|-----------|-3-3-3--7-7/8-/7-7/8-/12/15/19--|
D|---------------------------------------------------------|
                    *breakdown of chorus*

e|-----------------------------------------------13-14-15-13----15b------|
B|--------------------------------------13-14-15-------------15----------|
G|----------10-11-12-10-------------12b----------------------------------|
D|--10-11-12------------12-10-11-12--------------------------------------|
A|-----------------------------------------------------------------------|
D|-----------------------------------------------------------------------|
            *interlude solo before verse 2*

Verse 2:

e|-------|------|-----|-----|----------------------------------------------|
B|-------|------|-----|-----|----------------------------------------------|
G|-------|--5---|--7--|-----|----------------------------------------------|
D|---3---|--5---|--7--|--8--|-repeat 3x------------------------------------|
A|---3---|--3---|--5--|--8--|----------------------------------------------|
D|---3---|------|-----|--8--|----------------------------------------------|
    **Palm Mute**

e|--------------15b--|
B|--11h13p11--|------|
G|-------------------|
D|-------------------|
A|-------------------|
D|-------------------|

*interlude between verse and chorus*

Chorus:

e|-----|------|-----|-----|-----------|
B|-----|------|-----|-----|-----------|
G|-----|------|-----|-----|-----------|
D|--8--|--10--|--0--|--5--|-repeat 2x-|
A|--8--|--10--|--0--|--5--|-----------|
D|--8--|--10--|--0--|--5--|-----------|


e|------------|-----------|--------------------------------|
B|------------|-----------|--------------------------------|
G|--9--9/10/9-|-repeat 3x-|-5-5-5--9-9/10/9-9/10/14/17/21--|
D|--x--x/x-/x-|-----------|-x-x-x--x-x/x-/x-x/x-/x-/x-/x---|
A|--7--7/8-/7-|-----------|-3-3-3--7-7/8-/7-7/8-/12/15/19--|
D|---------------------------------------------------------|
                    *breakdown of chorus*

Bridge

e|-----------------------------------------------------------------|
B|-----------------------------------------------------------------|
G|----------------------6------------------------------------------|
D|--7-8-7~-7-8-7~-7-8-7---7-8-7~-7-8-7-7-8-7~----------------------|
A|-----------------------------------------------------------------|
D|-----------------------------------------------------------------|

Solo:

e|-----------------------------------------------13-14-15-15b--15-14-12---|
B|--------------------------------------13-14-15--------------------------|
G|-----------------------------13-14-15-----------------------------------|
D|--------------------13-14-15--------------------------------------------|
A|-----------13-14-15-----------------------------------------------------|
D|-/13-14-15--------------------------------------------------------------|
            **Tremolo picking**


e|-13p12-10-5-6-8-6-5--5--------------------------------------------------|
B|-------------------8---8--6--5---5--------------------------------------|
G|-------------------------------7---7-5--5-------------------------------|
D|--------------------------------------7--7-5/3-5------------------------|
A|-------------------------------------------------5(pitch harmonic)------|
D|------------------------------------------------------------------------|

Taping solo (listen for tap changes)

e|-10p6h8--|-12p8h10--|-13p10h12--|-15p10h12h17p10h12h18p10h12h17p10h12h15-|
B|---------|----------|-----------|----------------------------------------|
G|---------|----------|-----------|----------------------------------------|
D|---------|----------|-----------|----------------------------------------|
A|---------|----------|-----------|----------------------------------------|
D|---------|----------|-----------|----------------------------------------|

e|-p10h12h13p10h12h15p10h12h13p10~~-|
B|----------------------------------|
G|----------------------------------|
D|----------------------------------|
A|----------------------------------|
D|----------------------------------|

Chorus:

e|-----|------|-----|-15b-15-13-12-13p12---------------|
B|-----|------|-----|-------------------15b------------|
G|-----|------|-----|----------------------------------|
D|--8--|--10--|--0--|----------------------------------|
A|--8--|--10--|--0--|----------------------------------|
D|--8--|--10--|--0--|----------------------------------|

e|-----|------|-----|-19b-19-17-16-17p16------------|
B|-----|------|-----|-------------------19b---------|
G|-----|------|-----|-------------------------------|
D|--8--|--10--|--0--|-------------------------------|
A|--8--|--10--|--0--|-------------------------------|
D|--8--|--10--|--0--|-------------------------------|


e|------------|-----------|--------------------------------|
B|------------|-----------|--------------------------------|
G|--9--9/10/9-|-repeat 3x-|-5-5-5--9-9/10/9-9/10/14/17/21--|
D|--x--x/x-/x-|-----------|-x-x-x--x-x/x-/x-x/x-/x-/x-/x---|
A|--7--7/8-/7-|-----------|-3-3-3--7-7/8-/7-7/8-/12/15/19--|
D|---------------------------------------------------------|
                    *breakdown of chorus*

e|------------------15b-(whammy bar)------|
B|----------------------------------------|
G|----------------------------------------|
D|--0-------------------------------------|
A|--0--(whammy Bar)-----------------------|
D|--0-------------------------------------|

Acoustic outro (clean)(tabbed for Drop d tuning)

e|-----------------------------------|
B|-----------------------------------|
G|--------------7-----7-----5-----5--|
D|-----3----3--7----7-----5-----5----|
A|---3----3---5---5-----3-----3------|
D|-3----3----------------------------|


************************************

| /   slide up
| \   slide down
| h   hammer-on
| p   pull-off
| ~   vibrato
| +   harmonic
| x   Mute note
| b   Bend
| pb  Pre-bend
| br  Bend release
| pbr Pre-bend release
| brb Bend release bend

************************************
Tap to rate this tab
# A B C D E F G H I J K L M N O P Q R S T U V W X Y Z