Song name
# A B C D E F G H I J K L M N O P Q R S T U V W X Y Z

Orianthi - God Only Knows tab

God only knows
Artist : Orianthi
Album : Believe 

Main chords used   ( standard tuning: Eadgbe )
C  : 032030
D  : 200232
G  : 320033
Em : 022000

Intro

e |-5--------5--------3-------0--------------------| 
B |---2--------2--------0-------3------------------| 
G |-0---0--------3--------0-------0----------------| 
D |----------4--------2----------------------------| 
A |---------------------------3--------------------| 
E |------------------------------------------------|      \
       							   \
e |-5--------5--------3-------0---------|                   x2
B |---2--------2--------0-----3---------|                  /
G |-0---0--------3--------0-------------|                 /
D |----------4--------2-----------------|
A |---------------------------3---------| 
E |-------------------------------------| 

 

Verse 1

e |-5--------5--------3-------0--------------------| 
B |---2--------2--------0-------3------------------| 
G |-0---0--------3--------0-------0----------------| 
D |----------4--------2----------------------------| 
A |---------------------------3--------------------| 
E |------------------------------------------------| 
       
              I feel so alone

e |-5--------5--------3-------0---------| 
B |---2--------2--------0-----3---------|
G |-0---0--------3--------0-------------|
D |----------4--------2-----------------|
A |---------------------------3---------| 
E |-------------------------------------| 

           I Cant seem to find my out of this lone?



e |-5--------5--------3-------0--------------------| 
B |---2--------2--------0-------3------------------| 
G |-0---0--------3--------0-------0----------------| 
D |----------4--------2----------------------------| 
A |---------------------------3--------------------| 
E |------------------------------------------------| 
       
      No it dont seem right

e |-5--------5--------3-------0---------| 
B |---2--------2--------0-----3---------|
G |-0---0--------3--------0-------------|
D |----------4--------2-----------------|
A |---------------------------3---------| 
E |-------------------------------------| 

             I didnt have a chance to say good bye

-------------

e |-5--------5--------3-------0--------------------| 
B |---2--------2--------0-------3------------------| 
G |-0---0--------3--------0-------0----------------| 
D |----------4--------2----------------------------| 
A |---------------------------3--------------------| 	   \
E |------------------------------------------------|        \
                          				      x2
e |-5--------5--------3-------0---------| 		    /
B |---2--------2--------0-----3---------| 	           /
G |-0---0--------3--------0-------------|
D |----------4--------2-----------------|
A |---------------------------3---------| 
E |-------------------------------------| 

--------------

Verse 2

e |-5--------5--------3-------0--------------------| 
B |---2--------2--------0-------3------------------| 
G |-0---0--------3--------0-------0----------------| 
D |----------4--------2----------------------------| 
A |---------------------------3--------------------| 
E |------------------------------------------------| 
       
          In this this silent space

e |-5--------5--------3-------0---------| 
B |---2--------2--------0-------3-------|
G |-0---0--------3--------0-------0-----|
D |----------4--------2-----------------|
A |---------------------------3---------| 
E |-------------------------------------| 

             I close my eyes i can hear you say


e |-5--------5--------3-------0--------------------| 
B |---2--------2--------0-------3------------------| 
G |-0---0--------3--------0-------0----------------| 
D |----------4--------2-------------0--------------| 
A |---------------------------3--------------------| 
E |------------------------------------------------| 
       
          That it’s all right

e |-5--------5--------3-------0---------| 
B |---2--------2--------0-------3-------|
G |-0---0--------3--------0-------0-----|
D |----------4--------2-------------0---|
A |---------------------------3---------| 
E |-------------------------------------| 

         My world’s such an empty place tonight


Pre Chorus

Not really sure about this part

e |-3--------2--------0-----------------| 
B |-----0--------3----3-----------------|
G |---0--------2------------------------|   
D |-2--------0--------------------------| 
A |-------------------3-----------------| 
E |-------------------------------------| 

				Cause i know that

e |-3--------2--------0-----------------| 
B |-----0--------3----3-----------------|
G |---0--------2------------------------|   
D |-2--------0--------------------------| 
A |-------------------3-----------------| 
E |-------------------------------------|
				its all part of life

e |-3--------2--------0-----------------| 
B |-----0--------3----3-----------------|
G |---0--------2------------------------|   
D |-2--------0--------------------------| 
A |-------------------3-----------------| 
E |-------------------------------------|



Chorus
  G              Em
I wish i had the chance
           C
to say goodbye 
     D
yeah i still miss you
   G           Em
so hard to see through
               C
the tears i've cried
     D
Yeah i still need you
      G                 D/F#
Cause i dont want to if i dont
        Em           C Bm
have to ever let you go
    Am                D
The longest i'll hold on
God only knows

>>  Intro x1

e |-5--------5--------3-------0--------------------| 
B |---2--------2--------0-------3------------------| 
G |-0---0--------3--------0-------0----------------| 
D |----------4--------2----------------------------| 
A |---------------------------3--------------------| 
E |------------------------------------------------| 
       
            As the time goes by


e |-5--------5--------3-------0---------| 
B |---2--------2--------0-----3-3-------|
G |-0---0--------3--------0-------2-----|
D |----------4--------2-----------------|
A |---------------------------3---------| 
E |-------------------------------------| 

          it gets a little easier to smile


e |-5--------5--------3-------0--------------------| 
B |---2--------2--------0-------3------------------| 
G |-0---0--------3--------0-------0----------------| 
D |----------4--------2----------------------------| 
A |---------------------------3--------------------| 
E |------------------------------------------------| 
       
      I know i'll never forget




e |-5--------5--------3-------0---------| 
B |---2--------2--------0-----3-3-------|
G |-0---0--------3--------0-------0-----|
D |----------4--------2-------------0---|
A |---------------------------3---------| 
E |-------------------------------------| 

          everything that you said


pre chorus

e |-3--------2--------0-----------------| 
B |-----0--------3----3-----------------|
G |---0--------2------------------------|   
D |-2--------0--------------------------| 
A |-------------------3-----------------| 
E |-------------------------------------| 

				You said it's all right

e |-3--------2--------0-----------------| 
B |-----0--------3----3-----------------|
G |---0--------2------------------------|   
D |-2--------0--------------------------| 
A |-------------------3-----------------| 
E |-------------------------------------|
				its all part of life

e |-3--------2--------0-----------------| 
B |-----0--------3----3-----------------|
G |---0--------2------------------------|   
D |-2--------0--------------------------| 
A |-------------------3-----------------| 
E |-------------------------------------|

Chorus
  G              Em
I wish i had the chance
           C
to say goodbye 
     D
yeah i still miss you
   G           Em
so hard to see through
               C
the tears i've cried
     D
Yeah i still need you
      G                 D/F#
Cause i dont want to if i dont
        Em           C Bm
have to ever let you go
    Am                D
The longest i'll hold on
God only knows

e |-5--------5--------3-------0--------------------| 
B |---2--------2--------0-------2------------------| 
G |-0---0--------3--------0-------0----------------| 
D |----------4--------2----------------------------| 
A |---------------------------3--------------------| 
E |------------------------------------------------| 

bridge
e |------------------------------------------------| 
B |------------------------------------------------| 
G |--7777777777777777----5555555555555555----------| 
D |--7777777777777777----5555555555555555----------|  do the power chords
A |--5555555555555555----3333333333333333----------| 
E |------------------------------------------------|  
            D                                      C
 The lights above you will never fade if you keep looking up
 D                                              C
   Right around there is a better place if you believe in love

Pre chorus

e |-3--------2--------0-----------------| 
B |-----0--------3----------------------|
G |---0--------2------------------------|   
D |-2--------0--------------------------| 
A |-------------------3-----------------| 
E |-------------------------------------| 

				Cause I know that

e |-3--------2--------0-----------------| 
B |-----0--------3----------------------|
G |---0--------2------------------------|   
D |-2--------0--------------------------| 
A |-------------------3-----------------| 
E |-------------------------------------|
				its all part of life

e |-3--------2--------0-----------------| 
B |-----0--------3----------------------|
G |---0--------2------------------------|   
D |-2--------0--------------------------| 
A |-------------------3-----------------| 
E |-------------------------------------|

Chorus
  G              Em
I wish i had the chance
           C
to say goodbye 
     D
yeah i still miss you
   G           Em
so hard to see through
               C
the tears i've cried
     D
Yeah i still need you
      G                 D/F#
Cause i dont want to if i dont
        Em           C Bm
have to ever let you go
    Am                D
The longest i'll hold on
    Am                C
The longest i'll hold on
    Am                D
The longest i'll hold on
         G
God only knows

play Intro 

-----------------------------

hope you enjoyed this tab and i hope it was right :-D

note : For the solos, just figure them out your self by using scales, 
For the whole song just use the G major scale
Tap to rate this tab
# A B C D E F G H I J K L M N O P Q R S T U V W X Y Z