Song name
# A B C D E F G H I J K L M N O P Q R S T U V W X Y Z

Orianthi - According To You tab

(0:28)
eb---------------------------------11-13-15^--|
Bb---------------------------11-13------------|
Gb---------------10----10-12------------------|
Db-------8-10/12----12------------------------|
Ab--8-10--------------------------------------|
Eb--------------------------------------------|

(0:58)
eb---------------------------------------13-15----------13-15^--|
Bb---------------------------------13-15-------15-13-15---------|
Gb--------------------------------------------------------------|
Db--------13-15----------13-15^---------------------------------|
Ab--13-15-------15-13-15----------------------------------------|
Eb--------------------------------------------------------------|

(1:28)
eb--------------------------17^--|
Bb--11h12h11h12h11h12h11h12------|
Gb-------------------------------|
Db-------------------------------|
Ab-------------------------------|
Eb-------------------------------|

Solo (2:12)
eb--17Full-17-15-14h15-----|
Bb---------------------17--|
Gb-------------------------|
Db-------------------------|
Ab-------------------------|
Eb-------------------------|

eb--7-8-10-8-10------10------------------------------------|
Bb--------------10-8----8-7---8----------------------------|
Gb--------------------------9---9-7------------9-11-9------|
Db-------------------------------------9-10-12--------9-7--|
Ab---------------------------------------------------------|
Eb---------------------------------------------------------|

Tapping
eb--12-10-8-12-10-8-12-10-8-12-10-8-12-10-8-12-10-8-12-10-8-12-10-8--|
Bb-------------------------------------------------------------------|
Gb-------------------------------------------------------------------|
Db-------------------------------------------------------------------|
Ab-------------------------------------------------------------------|
Eb-------------------------------------------------------------------|

eb--14-12-10-14-12-10-14-12-10-14-12-10-14-12-10-14-12-10-14-12-10-14-12-10--|
Bb---------------------------------------------------------------------------|
Gb---------------------------------------------------------------------------|
Db---------------------------------------------------------------------------|
Ab---------------------------------------------------------------------------|
Eb---------------------------------------------------------------------------|

eb--15-14-12-15-14-12-15-14-12-17-14-12-15-14-12-17-14-12-19-14-12-17-14-12--|
Bb---------------------------------------------------------------------------|
Gb---------------------------------------------------------------------------|
Db---------------------------------------------------------------------------|
Ab---------------------------------------------------------------------------|
Eb---------------------------------------------------------------------------|

eb--19-14-12-20-14-12-19-14-12-17-15-14-19-14-12-17-14-12-15-14-12-15-14-12--|
Bb---------------------------------------------------------------------------|
Gb---------------------------------------------------------------------------|
Db---------------------------------------------------------------------------|
Ab---------------------------------------------------------------------------|
Eb---------------------------------------------------------------------------|

(2:40)
eb--17^-------15-------21^-------19-----|
Bb------17-15----17--------21-19----21--|
Gb--------------------------------------|
Db--------------------------------------|
Ab--------------------------------------|
Eb--------------------------------------|

(3:08)
eb---------------------------------------|
Bb---------------------------------------|
Gb------------------8-----8-----6-----6--|
Db------6-----6---6-----6-----4-----4----|
Ab----4-----4---4-----4-----2-----2------|
Eb--2-----2------------------------------|
Tap to rate this tab
 
# A B C D E F G H I J K L M N O P Q R S T U V W X Y Z