Song name
# A B C D E F G H I J K L M N O P Q R S T U V W X Y Z

Orianthi - According To You tab

Verse

Guitar 1
e|-----------------------------------------------------------------|
B|-----------------------------------------------------------------|
G|-10101010101010105-5-5-5-5-5-5-5-7-7-7-7-7-7-7-7-3-3-3-3-3-3-3-3-|
D|-10101010101010105-5-5-5-5-5-5-5-7-7-7-7-7-7-7-7-3-3-3-3-3-3-3-3-|  x3
A|-8-8-8-8-8-8-8-8-3-3-3-3-3-3-3-3-5-5-5-5-5-5-5-5-1-1-1-1-1-1-1-1-|
D|-----------------------------------------------------------------| 
   . . . . . . . . . . . . . . . . . . . . . . . . . . . . . . . .

e|---------------------------------------------------------1315brb|
B|---------------------------------------------------131516-------|
G|-10101010101010105-5-5-5-5-5-5-5---------------1315-------------|
D|-10101010101010105-5-5-5-5-5-5-5-----------1315-----------------|
A|-8-8-8-8-8-8-8-8-3-3-3-3-3-3-3-3-------1315---------------------|
D|---------------------------------151617-------------------------|
   . . . . . . . . . . . . . . . . 

Guitar 2
e|------------------------------------------------|
B|-------1-----------1-----------1-----------1----|
G|----0-----0-----0-----0-----0-----0-----0-----0-|
D|-3-----------3-----------3-----------3----------|
A|------------------------------------------------|
D|------------------------------------------------|

e|-1---1---1---1---3---3---3---3---1---1---1---1---3---3-|
B|---1---1---1---1---1---1---1---1---1---1---1---1---1---|
G|-------------------------------------------------------|
D|-------------------------------------------------------|
A|-------------------------------------------------------|
D|-------------------------------------------------------|


Chorus

e|-----------------------------------------------------------------|
B|-----------------------------------------------------------------|
G|-3-3-3-3-3-3-3-3-5-5-5-5-5-5-5-5---------------------------------|
D|-3-3-3-3-3-3-3-3-5-5-5-5-5-5-5-5-0-0-0-0-0-0-0-0-5-5-5-5-5-5-5-5-|  x3
A|-1-1-1-1-1-1-1-1-3-3-3-3-3-3-3-3-0-0-0-0-0-0-0-0-5-5-5-5-5-5-5-5-|
D|---------------------------------0-0-0-0-0-0-0-0-5-5-5-5-5-5-5-5-|

e|--------------------|
B|--------------------|
G|-3---3---3---3---5/-|
D|-3---3---3---3---5/-|
A|-1---1---1---1---3/-|
D|--------------------|


Pre-Verse

Guitar 1
e|----------------------------13h15p13--15brb-|
B|-----------------------13h15--------15------|
G|------10h12p10--12brb-----------------------|
D|-10h12--------12----------------------------|
A|--------------------------------------------|
D|--------------------------------------------|

Guitar 2
e|-------------------------|
B|-------------------------|
G|-3-3-3-3-3-----3-3-3-3-3-|
D|-3-3-3-3-3-----3-3-3-3-3-|
A|-1-1-1-1-1-----1-1-1-1-1-|
D|-------------------------|


Verse

Guitar 1
e|-----------------------------------------------------------------|
B|-----------------------------------------------------------------|
G|-10101010101010105-5-5-5-5-5-5-5-7-7-7-7-7-7-7-7-3-3-3-3-3-3-3-3-|
D|-10101010101010105-5-5-5-5-5-5-5-7-7-7-7-7-7-7-7-3-3-3-3-3-3-3-3-|
A|-8-8-8-8-8-8-8-8-3-3-3-3-3-3-3-3-5-5-5-5-5-5-5-5-1-1-1-1-1-1-1-1-|
D|-----------------------------------------------------------------| 
   . . . . . . . . . . . . . . . . . . . . . . . . . . . . . . . .

e|-----------------------------------------------------------------|
B|-----------------------------------------------------------------|
G|-10101010101010105-5-5-5-5-5-5-5-7-7-7-7-7-7-7-7-3-3-3-3-3-3-3-3-|
D|-10101010101010105-5-5-5-5-5-5-5-7-7-7-7-7-7-7-7-3-3-3-3-3-3-3-3-|
A|-8-8-8-8-8-8-8-8-3-3-3-3-3-3-3-3-5-5-5-5-5-5-5-5-1-1-1-1-1-1-1-1-|
D|-----------------------------------------------------------------| 
   . .   . . . . . . . .   . . . . . .   . . . . . . .   . . . . .

e|-----------------------------------------------------------------|
B|-----------------------------------------------------------------|
G|-10101010101010105-5-5-5-5-5-5-5-7-7-7-7-7-7-7-7-3-3-3-3-3-3-3-3-|
D|-10101010101010105-5-5-5-5-5-5-5-7-7-7-7-7-7-7-7-3-3-3-3-3-3-3-3-|
A|-8-8-8-8-8-8-8-8-3-3-3-3-3-3-3-3-5-5-5-5-5-5-5-5-1-1-1-1-1-1-1-1-|
D|-----------------------------------------------------------------| 
   . .   . .   . . . .   . .   . . . .   . .   . . . .   . .   . .

e|---------------------------------|
B|---------------------------------|
G|-10101010101010105-5-5-5-5-5-5-5-|
D|-10101010101010105-5-5-5-5-5-5-5-|
A|-8-8-8-8-8-8-8-8-3-3-3-3-3-3-3-3-|
D|---------------------------------|

e|-------------------------------------------------15brb-|
B|-13p10h13p10h13p10h13p10h13p10h13p10h13p10h13p10-------|
G|-------------------------------------------------------|
D|-------------------------------------------------------|
A|-------------------------------------------------------|
D|-------------------------------------------------------|

Guitar 2
e|-------------------------------------------------|
B|-------------------------------------------------|
G|-------0-----------0-----------0-----------2-----|
D|----0-----0-----0-----0-----0-----0-----0-----0--|  x2
A|-3-----------3-----------3-----------3-----------|
D|-------------------------------------------------|

e|------------------------------------------------|
B|-------1-----------1-----------1-----------1----|
G|----0-----0-----0-----0-----0-----0-----0-----0-|
D|-3-----------3-----------3-----------3----------|
A|------------------------------------------------|
D|------------------------------------------------|

e|-1---1---1---1---3---3---3---3---1---1---1---1---3---3-|
B|---1---1---1---1---1---1---1---1---1---1---1---1---1---|
G|-------------------------------------------------------|
D|-------------------------------------------------------|
A|-------------------------------------------------------|
D|-------------------------------------------------------|


Chorus

e|-----------------------------------------------------------------|
B|-----------------------------------------------------------------|
G|-3-3-3-3-3-3-3-3-5-5-5-5-5-5-5-5---------------------------------|
D|-3-3-3-3-3-3-3-3-5-5-5-5-5-5-5-5-0-0-0-0-0-0-0-0-5-5-5-5-5-5-5-5-|  x3
A|-1-1-1-1-1-1-1-1-3-3-3-3-3-3-3-3-0-0-0-0-0-0-0-0-5-5-5-5-5-5-5-5-|
D|---------------------------------0-0-0-0-0-0-0-0-5-5-5-5-5-5-5-5-|

e|-------------------|
B|-------------------|
G|-3---3---3---3---5-|
D|-3---3---3---3---5-|
A|-1---1---1---1---3-|
D|-------------------|


Bridge

e|-------------------------------------------------------------------|
B|-------------------------------------------------------------------|
G|-3-3-3-3-3-3-3-3-----------------------------------2-2-2-2-2-2-2-2-|
D|-3-3-3-3-3-3-3-3-3-3-3-3-3-3-3-3-5-5-5-5-5-5-5-5-5-2-2-2-2-2-2-2-2-|
A|-1-1-1-1-1-1-1-1-3-3-3-3-3-3-3-3-5-5-5-5-5-5-5-5-5-0-0-0-0-0-0-0-0-|
D|-----------------3-3-3-3-3-3-3-3-5-5-5-5-5-5-5-5-5-----------------|
   . . . . . . . . . . . . . . . . . . . . . . . . . . . . . . . . .


Solo

Guitar 1
e|-15brb-15-13-12-13p12------5-6-8-6-5-------------------------------------|
B|----------------------15~------------8-6-5-6-5---------------------------|
G|-----------------------------------------------7-5-----------------------|
D|---------------------------------------------------7-5-3h5p3-5~-3h5p3----|
A|----------------------------------------------------------------------5*-|
D|-------------------------------------------------------------------------|

e|-10t8p6-(x8)-12t10p8-(x8)-13t12p10-(x4)-|
B|----------------------------------------|
G|----------------------------------------|
D|----------------------------------------|
A|----------------------------------------|
D|----------------------------------------|

e|-15t12p10-13t12p10-15t12p10-17t12p10-15t12p10-17t12p10-18t12p10-17t12p10-|
B|-------------------------------------------------------------------------|
G|-------------------------------------------------------------------------|
D|-------------------------------------------------------------------------|
A|-------------------------------------------------------------------------|
D|-------------------------------------------------------------------------|

e|-15t12p10-17t12p10-15t12p10-17t12p10-13t12p10-|
B|----------------------------------------------|
G|----------------------------------------------|
D|----------------------------------------------|
A|----------------------------------------------|
D|----------------------------------------------|

Guitar 2
e|-----------------------------------------------------------------|
B|-----------------------------------------------------------------|
G|-3-3-3-3-3-3-3-3-5-5-5-5-5-5-5-5---------------------------------|
D|-3-3-3-3-3-3-3-3-5-5-5-5-5-5-5-5-0-0-0-0-0-0-0-0-5-5-5-5-5-5-5-5-|  x2
A|-1-1-1-1-1-1-1-1-3-3-3-3-3-3-3-3-0-0-0-0-0-0-0-0-5-5-5-5-5-5-5-5-|
D|---------------------------------0-0-0-0-0-0-0-0-5-5-5-5-5-5-5-5-|


Chorus

e|-----------------------------------------------------------------|
B|-----------------------------------------------------------------|
G|-3-3-3-3-3-3-3-3-5-5-5-5-5-5-5-5---------------------------------|
D|-3-3-3-3-3-3-3-3-5-5-5-5-5-5-5-5-0-0-0-0-0-0-0-0-5-5-5-5-5-5-5-5-|  x3
A|-1-1-1-1-1-1-1-1-3-3-3-3-3-3-3-3-0-0-0-0-0-0-0-0-5-5-5-5-5-5-5-5-|
D|---------------------------------0-0-0-0-0-0-0-0-5-5-5-5-5-5-5-5-|

e|-------------------|
B|-------------------|
G|-3---3---3---3---5-|
D|-3---3---3---3---5-|
A|-1---1---1---1---3-|
D|-------------------|


Outro

(while one guitar plays this, the other does some dive bomb sound with the whammy bar)
e|-13-13-13-13-13-13-13-13-13-13-13-13-13-13-13-13-|
B|-10-10-10-10-10-10-10-10-10-10-10-10-10-10-10-10-|
G|-10-10-10-10-10-10-10-10-10-10-10-10-10-10-10-10-|
D|-------------------------------------------------|
A|-------------------------------------------------|
D|-------------------------------------------------|

Acoustic part
e|--------------------------------------|
B|--------------------------------------|
G|-----------------7-----7------5-----5-|
D|-----3-----3---7-----7------5-----5---|
A|---3-----3---5-----5------3-----3-----|
D|-3-----3------------------------------|



. - Palm Mute
h - Hammer On
p - Pull Off
t - Tap
* - Pinch Harmonic
b - Bend
r - Release Bend
~ - Vibrato
Tap to rate this tab
# A B C D E F G H I J K L M N O P Q R S T U V W X Y Z