Song name
# A B C D E F G H I J K L M N O P Q R S T U V W X Y Z

Orianthi - Lights Of Manos tab

-------------------------------------------------------------------------------
     Orianthi Panagaris- Lights Of Manos
-------------------------------------------------------------------------------
Tabbed by: Me
Email: shredred048@gmail.com 

just hoping
to give everyone an idea where to start at least since there are no other 
tabs of this that i know of..have fun 


Tuning: E a d g b e (standard)


Rythym guitar (try different variations)
e|--------7------------5---------------3-----------------------7-------------|
B|--------7h8------------5---------------3---------------------7h8~~---------|
G|------9------------7-----7---------5-----5-----------------9------start----|
D|----9------------7---------7------5--------5-------------9---------over----|
A|-7-------------5----------------3----------------------7-------------------|
E|-0-----------------------------------------------------0-------------------|

Lead 
e|---------------------------------------------------------------------------|
B|--12h15~~~12~~~10~~~----7h8h10--8--7h8p7---7-------------------------------|
G|------------------------7----------------9---9p7---------------------------|
D|-------------------------------------------------7h9-7h9-7h9~~~~-----------|
A|---------------------------------------------------------------------------|
E|---------------------------------------------------------------------------|

e|---------------------------------------------------------------------------|
B|---------------------------------------------------------------------------|
G|---------------------------------------------------------------------------|
D|----5-7--7/8/7-5-----------------------------------------------------------|
A|-/7----------------5------5h7-5h7-5h7~~~~~~~-------------------------------|
E|-----------------7---7----0------------------------------------------------|

e|-----------------12---14p12-14~~~15-----14~~~----14~~~15-12~~~~~-----------|
B|--------------12---------------------12-------12---------------------15p12-|
G|---------9-12--------------------------------------------------------------|
D|-------9-------------------------------------------------------------------|
A|----10---------------------------------------------------------------------|
E|-12------------------------------------------------------------------------|

e|----12---------------------------------------------------------------------|
B|-12-----15-12--------------------------------------------------------------|
G|---------------14b(1/2)r14p12----14p12-------------------------------------|
D|------------------------------14-------14p12---12h14-12h14-12h14-12h14-----|
A|---------------------------------------------------------------------------|
E|---------------------------------------------------------------------------|

e|---------------------------------------------------------------------------|
B|---------------------------------------------------------------------------|
G|---------------------------------------------------------------------------|
D|-12------------------------------------------------------------------------|
A|----14/12p10----10-12--12/13/12p10----10-----------------------------------|
E|------------h12--------------------12-----12p10--/12-/12-/12~~~~~~~~~------|

e|----------------12--14h15p14p12--14-14~~15---------------------------------|
B|-------------12------------------------------------------------------------|
G|--------9-12---------------------------------------------------------------|
D|------9--------------------------------------------------------------------|
A|---10----------------------------------------------------------------------|
E|-12------------------------------------------------------------------------|

e|-----12--12------17graduallybend(19)--(19)-(19)-(19)-(19)-(19)-(19)-(19).....
B|----12--12-----x--------------------------------(fast picking)-------------|
G|--------12----x------------------------------------------------------------|
D|-------------x-------------------------------------------------------------|
A|---------------------------------------------------------------------------|
E|---------------------------------------------------------------------------|


************************************

| /   slide up
| \   slide down
| h   hammer-on
| p   pull-off
| ~   vibrato
| +   harmonic
| x   Mute note
| b   Bend
| pb  Pre-bend
| br  Bend release
| pbr Pre-bend release
| brb Bend release bend

************************************
Tap to rate this tab
 
# A B C D E F G H I J K L M N O P Q R S T U V W X Y Z