Song name
# A B C D E F G H I J K L M N O P Q R S T U V W X Y Z

Orianthi - According To You tab

E|-----------------------------------------------------------------|
B|----------------------------------7-7-7-7-7-7-7-7-3-3-3-3-3-3-3-3|
G|----------------------------------7-7-7-7-7-7-7-7-3-3-3-3-3-3-3-3|
D|-3-3-3-3-3-3-3-3-1010101010101010-5-5-5-5-5-5-5-5-1-1-1-1-1-1-1-1|
A|-3-3-3-3-3-3-3-3-1010101010101010--------------------------------|
E|-1-1-1-1-1-1-1-1-8-8-8-8-8-8-8-8---------------------------------|

E|-----------------------------------------------------------------|
B|----------------------------------7-7-7-7-7-7-7-7-3-3-3-3-3-3-3-3|
G|----------------------------------7-7-7-7-7-7-7-7-3-3-3-3-3-3-3-3|
D|-3-3-3-3-3-3-3-3-1010101010101010-5-5-5-5-5-5-5-5-1-1-1-1-1-1-1-1|
A|-3-3-3-3-3-3-3-3-1010101010101010--------------------------------|
E|-1-1-1-1-1-1-1-1-8-8-8-8-8-8-8-8---------------------------------|

E|-----------------------------------------------------------------|
B|----------------------------------7-7-7-7-7-7-7-7-3-3-3-3-3-3-3-3|
G|----------------------------------7-7-7-7-7-7-7-7-3-3-3-3-3-3-3-3|
D|-3-3-3-3-3-3-3-3-1010101010101010-5-5-5-5-5-5-5-5-1-1-1-1-1-1-1-1|
A|-3-3-3-3-3-3-3-3-1010101010101010--------------------------------|
E|-1-1-1-1-1-1-1-1-8-8-8-8-8-8-8-8---------------------------------|

E|-----------------------------------------------------------------|
B|----------------------------------7-7-7-7-7-7-7-7-3-3-3-3-3-3-3-3|
G|----------------------------------7-7-7-7-7-7-7-7-3-3-3-3-3-3-3-3|
D|-3-3-3-3-3-3-3-3-1010101010101010-5-5-5-5-5-5-5-5-1-1-1-1-1-1-1-1|
A|-3-3-3-3-3-3-3-3-1010101010101010--------------------------------|
E|-1-1-1-1-1-1-1-1-8-8-8-8-8-8-8-8---------------------------------|
  I think this is how it goes.
E|-----------------------------------------------------------------|
B|-------------------------------------------15-16-17b-------------|
G|-----------------------------------15-16-17----------------------|
D|--------------------------13-14-15-------------------------------|
A|---------10-11-12-13-14-15---------------------------------------|
E|-10-11-12--------------------------------------------------------|

E|-----------------------------------------------------------------|
B|----------------------------------7-7-7-7-7-7-7-7-3-3-3-3-3-3-3-3|
G|----------------------------------7-7-7-7-7-7-7-7-3-3-3-3-3-3-3-3|
D|-3-3-3-3-3-3-3-3-1010101010101010-5-5-5-5-5-5-5-5-1-1-1-1-1-1-1-1|
A|-3-3-3-3-3-3-3-3-1010101010101010--------------------------------|
E|-1-1-1-1-1-1-1-1-8-8-8-8-8-8-8-8---------------------------------|

E|-----------------------------------------------------------------|
B|----------------------------------7-7-7-7-7-7-7-7-3-3-3-3-3-3-3-3|
G|----------------------------------7-7-7-7-7-7-7-7-3-3-3-3-3-3-3-3|
D|-3-3-3-3-3-3-3-3-1010101010101010-5-5-5-5-5-5-5-5-1-1-1-1-1-1-1-1|
A|-3-3-3-3-3-3-3-3-1010101010101010--------------------------------|
E|-1-1-1-1-1-1-1-1-8-8-8-8-8-8-8-8---------------------------------|

E|-----------------------------------------------------------------|
B|----------------------------------7-7-7-7-7-7-7-7-3-3-3-3-3-3-3-3|
G|----------------------------------7-7-7-7-7-7-7-7-3-3-3-3-3-3-3-3|
D|-3-3-3-3-3-3-3-3-1010101010101010-5-5-5-5-5-5-5-5-1-1-1-1-1-1-1-1|
A|-3-3-3-3-3-3-3-3-1010101010101010--------------------------------|
E|-1-1-1-1-1-1-1-1-8-8-8-8-8-8-8-8---------------------------------|

E|-----------------------------------------------------------------|
B|----------------------------------7-7-7-7-7-7-7-7-3-3-3-3-3-3-3-3|
G|----------------------------------7-7-7-7-7-7-7-7-3-3-3-3-3-3-3-3|
D|-3-3-3-3-3-3-3-3-1010101010101010-5-5-5-5-5-5-5-5-1-1-1-1-1-1-1-1|
A|-3-3-3-3-3-3-3-3-1010101010101010--------------------------------|
E|-1-1-1-1-1-1-1-1-8-8-8-8-8-8-8-8---------------------------------|

E|-------------------------------------------13-14-15h---15b-------|
B|-----------------------------------13-14-15---------15b----------|
G|-----------------------------------------------------------------|
D|-3-3-3-3--------------10-11-12h----------------------------------|
A|-3-3-3-3------10-11-12---------12b-------------------------------|
E|-1-1-1-1---------------------------------------------------------|

E|-----------------------------------------------------------------|
B|----------------------------------7-7-7-7-7-7-7-7-3-3-3-3-3-3-3-3|
G|----------------------------------7-7-7-7-7-7-7-7-3-3-3-3-3-3-3-3|
D|-3-3-3-3-3-3-3-3-1010101010101010-5-5-5-5-5-5-5-5-1-1-1-1-1-1-1-1|
A|-3-3-3-3-3-3-3-3-1010101010101010--------------------------------|
E|-1-1-1-1-1-1-1-1-8-8-8-8-8-8-8-8---------------------------------|

E|-----------------------------------------------------------------|
B|----------------------------------7-7-7-7-7-7-7-7-3-3-3-3-3-3-3-3|
G|----------------------------------7-7-7-7-7-7-7-7-3-3-3-3-3-3-3-3|
D|-3-3-3-3-3-3-3-3-1010101010101010-5-5-5-5-5-5-5-5-1-1-1-1-1-1-1-1|
A|-3-3-3-3-3-3-3-3-1010101010101010--------------------------------|
E|-1-1-1-1-1-1-1-1-8-8-8-8-8-8-8-8---------------------------------|

E|-----------------------------------------------------------------|
B|----------------------------------7-7-7-7-7-7-7-7-3-3-3-3-3-3-3-3|
G|----------------------------------7-7-7-7-7-7-7-7-3-3-3-3-3-3-3-3|
D|-3-3-3-3-3-3-3-3-1010101010101010-5-5-5-5-5-5-5-5-1-1-1-1-1-1-1-1|
A|-3-3-3-3-3-3-3-3-1010101010101010--------------------------------|
E|-1-1-1-1-1-1-1-1-8-8-8-8-8-8-8-8---------------------------------|

E|---------------------------------1214p13p14p13p14p13p14p13b------|
B|-----------------------------------------------------------------|
G|-----------------------------------------------------------------|
D|-3-3-3-3-3-3-3-3-1010101010101010--------------------------------|
A|-3-3-3-3-3-3-3-3-1010101010101010--------------------------------|
E|-1-1-1-1-1-1-1-1-8-8-8-8-8-8-8-8---------------------------------|

E|-----------------------------------------------------------------|
B|----------------------------------7-7-7-7-7-7-7-7-3-3-3-3-3-3-3-3|
G|----------------------------------7-7-7-7-7-7-7-7-3-3-3-3-3-3-3-3|
D|-3-3-3-3-3-3-3-3-1010101010101010-5-5-5-5-5-5-5-5-1-1-1-1-1-1-1-1|
A|-3-3-3-3-3-3-3-3-1010101010101010--------------------------------|
E|-1-1-1-1-1-1-1-1-8-8-8-8-8-8-8-8---------------------------------|

E|-----------------------------------------------------------------|
B|----------------------------------7-7-7-7-7-7-7-7-3-3-3-3-3-3-3-3|
G|----------------------------------7-7-7-7-7-7-7-7-3-3-3-3-3-3-3-3|
D|-3-3-3-3-3-3-3-3-1010101010101010-5-5-5-5-5-5-5-5-1-1-1-1-1-1-1-1|
A|-3-3-3-3-3-3-3-3-1010101010101010--------------------------------|
E|-1-1-1-1-1-1-1-1-8-8-8-8-8-8-8-8---------------------------------|

E|-----------------------------------------------------------------|
B|--------------------7-7-7-7-3-3-3-3------------------------------|
G|--------------------7-7-7-7-3-3-3-3------------------------------|
D|-3-3-3-3-3-10101010-5-5-5-5-1-1-1-1------------------------------|
A|-3-3-3-3-3-10101010----------------------------------------------|
E|-1-1-1-1-1-8-8-8-8-----------------------------------------------|
  Good luck with the solo
Tap to rate this tab
 
# A B C D E F G H I J K L M N O P Q R S T U V W X Y Z