Orianthi - Whats It Gonna Be tab

-------------------------------------------------------------------------------
			     WHAT'S IT GONNA BE - Orianthi
-------------------------------------------------------------------------------
Tabbed by: Rory

Tuning: - Gtr 1 - Rhythm guitar: EADGBe
          Gtr 2 - Lead guitar: EADGBe
          Gtr 3 - Solo guitar: EADGBe

Intro/Riff                                                      
  Gtr 1                                                         *semi-harmonic
e|-------------------------------------------------------|-------------------|
B|-o---------------------------------------------------0-|-------------------|
G|-------------------------------------------------------|-------------------|
D|-------------------------------------------------------|-------------------|
A|-o------3---------5-5/7-5-3-------3----------7-7-5-7-0-|-x--x-*------------|
E|---3-5----5-0-3-5------------3-5----5-0-3-5--5-5-3-5---|-x--x--------------|

Verse 1
  Gtr 1
e|---------------------------------------------------|
B|---------------------------------------------------|
G|------------------------------7-7-7----------------|
D|----7-7-7--------5-5-5--------7-7-7--------7-7-7---|
A|----7-7-7--------5-5-5--------5-5-5--------7-7-7---|
E|----5-5-5--------3-3-3---------------------5-5-5---|

e|---------------------------------------------------|
B|---------------------------------------------------|
G|------------------------------7-7-7----------------|
D|----7-7-7--------5-5-5--------7-7-7--------7-7-7---|
A|----7-7-7--------5-5-5--------5-5-5--------7-7-7---|
E|----5-5-5--------3-3-3---------------------5-5-5---|

Pre-chorus
  Gtr 1
e|------------------------------------------|
B|------------------------------------------|
G|------------------------------------------|
D|------------------------------------------|
A|------3-5------3-5------3-5--/7~~~~~~~~~--|
E|--3-5------3-5------3-5-------------------|

Chorus
  Gtr 1                                       x4
e|-----------------------------------------------|
B|-o-------------------------------------------o-|
G|-----------------------------------------------|
D|----7--7--7--7--7--7--7--7---5-5-5-5-5-5-5-5---|
A|-o--7--7--7--7--7--7--7--7---5-5-5-5-5-5-5-5-o-|
E|----5--5--5--5--5--5--5--5---3-3-3-3-3-3-3-3---|

  Gtr 2
e|-----------------------------------------------|
B|-o--10-10-10-10-10-10-10-10--8-8-8-8-8-8-8-8-o-|
G|----9--9--9--9--9--9--9--9---7-7-7-7-7-7-7-7---|
D|-----------------------------------------------|
A|-o-------------------------------------------o-|
E|-----------------------------------------------|

Verse 2
  Gtr 1                                                       *semi-harmonic
e|-----------------------------------------------------|-------------------|
B|-----------------------------------------------------|-------------------|
G|-----------------------------------------------------|-------------------|
D|-----------------------------------------------------|-------------------|
A|-------3---------5-5/7-5-3-------3----------7-7-5-7--|-x--x-*------------|
E|--3-5----5-0-3-5------------3-5----5-0-3-5--5-5-3-5--|-x--x--------------|

Gtr 1
e|--------------------------------------------|
B|-o------------------------------------------|
G|--------------------------------------------|
D|----7-7-7-------------------5-5-5-----------|
A|-o--7-7-7-------------------5-5-5-----------|
E|----5-5-5-------------------3-3-3-----------|

  Gtr 2
e|--------------------------------------------|
B|-o--10-10-10-10-10-10-10-10-8-8-8-8-8-8-8-8-|
G|----9--9--9--9--9--9--9--9--7-7-7-7-7-7-7-7-|
D|--------------------------------------------|
A|-o------------------------------------------|
E|--------------------------------------------|

Gtr 1
e|--------------------------------------------|
B|------------------------------------------o-|
G|--7-7-7-------------------------------------|
D|--7-7-7-------------------7-7-7-------------|
A|--5-5-5-------------------7-7-7-----------o-|
E|--------------------------5-5-5-------------|

  Gtr 2
e|--------------------------------------------|
B|--10-10-10-10-10-10-10-10-8-8-8-8-8-8-8-8-o-|
G|--9--9--9--9--9--9--9--9--7-7-7-7-7-7-7-7---|
D|--------------------------------------------|
A|------------------------------------------o-|
E|--------------------------------------------|


Pre Chorus

Chorus

Solo
  Gtr 3
e|-----------------------------------------------------|
B|-----------------------------------------------------|
G|--12b(14)~~~~11b(12)~~~~~9b(11)---5-7-7/9\7-5-7-5~~~-|
D|--------------------------------7--------------------|           
A|-----------------------------------------------------|           
E|-----------------------------------------------------|           *sustain note
                                                                    into verse 3
e|---------------------------------------------------------------------------|
B|-------------------------15b(17)~~~~--15b(17)-13-15-15b(17)-13-------------|
G|--12b(14)~~~~14b(16)~~~~---------------------------------------14*~~~~~~~~~|
D|---------------------------------------------------------------------------|
A|---------------------------------------------------------------------------|
E|---------------------------------------------------------------------------|

Verse 3
  Gtr 1
e|----------------------------------------------------|
B|----------------------------------------------------|
G|------------------------------7-7-7-----------------|
D|----7-7-7--------5-5-5--------7-7-7--------7-7-7----|
A|----7-7-7--------5-5-5--------5-5-5--------7-7-7----|
E|----5-5-5--------3-3-3---------------------5-5-5----|

e|----------------------------------------------------|
B|----------------------------------------------------|
G|------------------------------7~~~~-----------------|
D|----7-7-7--------5-5-5--------7~~~~-----------------|
A|----7-7-7--------5-5-5--------5~~~~-----------------|
E|----5-5-5--------3-3-3------------------------------|



Chorus x2


Outro
  Gtr 1                                          x3
e|-------------------------------------------------|
B|-o---------------------------------------------o-|
G|-------------------------------------------------|
D|-------5-----------------------5-----------------|
A|-o-5/7---7\5-3-------------5/7---7\5-3---5/7-7-o-|
E|---------------5--3/5-5----------------5---------|

e|--------------------------|
B|--------------------------|
G|--------------------------|
D|-------5------------------|
A|--5/7---7\5-3-------------|
E|---------------5--3/5-5~~-|


************************************

| /   slide up
| \   slide down
| h   hammer-on
| p   pull-off
| ~   vibrato
| +   harmonic
| x   Mute note
| b   Bend
| pb  Pre-bend
| br  Bend release
| pbr Pre-bend release
| brb Bend release bend

************************************
Tap to rate this tab
 
# A B C D E F G H I J K L M N O P Q R S T U V W X Y Z