Song name
# A B C D E F G H I J K L M N O P Q R S T U V W X Y Z

Orianthi - Suffocated tab

-------------------------------------------------------------------------------
	 Suffocated - Orianthi
-------------------------------------------------------------------------------

Tabbed by:Alexis_L
Email:

I know this isnt 100% correct but its close.

Tuning:standard

VERSE:

E]--------------------------------------------------------------------]
B]--------------------------------------------------------------------]
G]---0---0----0----0---0--------0---0---2---2---2---2---2---2---2-----]  X 4
D]-2---2----2----2---2----2---0---0---3---3---3---3---3---3---2---2---]
A]--------------------------------------------------------------------]
E]--------------------------------------------------------------------]

E]--------------------------5--15--12-]
B]--------------------5-8-------------]
G]--------------5-7-------------------]
D]--------5-7-------------------------]
A]-5-7--------------------------------]
E]------------------------------------]


CHORUS:1
E D C G

E]----------------17b-15-12-]
B]-12-15-17-----------------]
G]--------------------------]
D]--------------------------]
A]--------------------------]
E]--------------------------]


E D C G 

E]------------------------------------------------------------]
B]-15-17-15-17-15-17-15---------------------------------------]
G]------------------------14-17-14-17-14-12-------------------]
D]---------------------------------------------14-12-10-------]
A]------------------------------------------------------------]
E]------------------------------------------------------------]


CHORUS:2
E D C G

E]-19b-17-15-17----------------]
B]----------------17-15-17-15--]
G]-----------------------------]
D]-----------------------------]
A]-----------------------------]
E]-----------------------------]

E]-12---12-12/15--15-15-19-15-14-15---------------------------------------]
B]-----------------------------------17--15-13----------------------------]
G]----------------------------------------------14-12---------------------]
D]-----------------------------------------------------14-12--------------]
A]-------------------------------------------------------------14-12-10---]
E]------------------------------------------------------------------------]

BRIDGE:
G C G G

E]-15t-12-14t-12-]
B]---------------]
G]---------------]   x 8
D]---------------]
A]---------------]
E]---------------]


E]-------------------------------]
B]-------------------------------]
G]-12-14-------------------------]
D]--------12-14------------------]
A]---------------12-14-12--------]
E]-------------------------12----]

CHORUS:3

E]-12-12-12/15--15-15-19-15-14-15----------------15-15-15-17-17-17-19---]
B]----------------------------------17b-17-17-17------------------------]
G]----------------------------------------------------------------------]
D]----------------------------------------------------------------------]
A]----------------------------------------------------------------------]
E]----------------------------------------------------------------------]


E]--------------]
B]--------------]
G]--------------]
D]-5-7-10-9-7---]
A]--------------]
E]--------------]

E]-17-12-15-12-]
B]-------------]
G]-------------]  X 8
D]-------------]
A]-------------]
E]-------------]

E]-19-19-19-19-17-17-15-15-12--15-15-15-15--]
B]------------------------------------------]
G]------------------------------------------]
D]------------------------------------------]
A]------------------------------------------]
E]------------------------------------------]



************************************

| /   slide up
| \   slide down
| h   hammer-on
| p   pull-off
| ~   vibrato
| +   harmonic
| x   Mute note
| b   Bend
| pb  Pre-bend
| br  Bend release
| pbr Pre-bend release
| brb Bend release bend

************************************
Tap to rate this tab
 
# A B C D E F G H I J K L M N O P Q R S T U V W X Y Z