Song name
# A B C D E F G H I J K L M N O P Q R S T U V W X Y Z

Orianthi - Courage tab

-------------------------------------------------------------------------------
                         COURAGE (solo) - Orianthi
-------------------------------------------------------------------------------
Tabbed by: Rory Butler

Tuning: Standard

       *(Scoop whammy bar as sliding to next note)

e|-8h10*-/15---13p12-----12---|-------------------------------------------------|
B|------------------13-15--15-|-12-13-15-12-13-12h13p12-------------------------|
G|----------------------------|------------------------14-12--------------------|
D|----------------------------|-----------------------------14\12-10-10-12b(14)-|
A|----------------------------|-------------------------------------------------|
E|----------------------------|-------------------------------------------------|

e|---------------------------------------------|--------5--------5h8p5----------|
B|---------------------------------------------|------5---8b(10)-------8b(10)---|
G|-------------------------------12------------|-7b(9)--------------------------|
D|---------------10~~-12-10-12/14--14\12-10----|--------------------------------|
A|-10-11-12-(10)----------------------------12-|--------------------------------|
E|---------------------------------------------|--------------------------------|

e|-5h8p5--------5h8p5--------5h8p5-8b(10)-8~~-----------------------------------|
B|-------8b(10)-------8b(10)------------------8b(10)-10b(12)-12b(13)-13b(15)----|
G|------------------------------------------------------------------------------|
D|------------------------------------------------------------------------------|
A|------------------------------------------------------------------------------|
E|------------------------------------------------------------------------------|
     **(Occasionally scoop whammy bar as trilling)

     **
e|-12tr(13)~~~~~~~~~-15b(17)-|
B|---------------------------|
G|---------------------------|
D|---------------------------|
A|---------------------------|
E|---------------------------|


************************************

| /   slide up
| \   slide down
| h   hammer-on
| p   pull-off
| ~   vibrato
| +   harmonic
| x   Mute note
| b   Bend
| pb  Pre-bend
| br  Bend release
| pbr Pre-bend release
| brb Bend release bend

************************************
Tap to rate this tab
 
# A B C D E F G H I J K L M N O P Q R S T U V W X Y Z