Song name
# A B C D E F G H I J K L M N O P Q R S T U V W X Y Z

Orianthi - Suffocated tab

-------------------------------------------------------------------------------
	                     * Orianthi - Suffocated *
-------------------------------------------------------------------------------
Tabbet by Thomas Hj
Email:


Tunning Standard


CHORUS: 1, 2, 3
E|-----------------------------------------------------------------|
B|-----------------------------------------------------------------|
G|-------------------------7-7-7-7-5-5-5-5-5-5-5-5-5-5-5-5-5-5-5-5-|
D|-2-2-2-2-2-2-2-2-2-2-2-2-7-7-7-7-5-5-5-5-5-5-5-5-5-5-5-5-5-5-5-5-|
A|-2-2-2-2-2-2-2-2-2-2-2-2-5-5-5-5-3-3-3-3-3-3-3-3-3-3-3-3-3-3-3-3-|
E|-0-0-0-0-0-0-0-0-0-0-0-0-----------------------------------------|

E|-----------------------------------------------------------------|
B|-----------------------------------------------------------------|
G|-----------------------------------------------------------------|   X 2
D|-5-5-5-5-5-5-5-5-5-5-5-5-5-5-5-5-7-7-7-7-7-7-7-7-7-7-7-7-7-7-7-7-|
A|-5-5-5-5-5-5-5-5-5-5-5-5-5-5-5-5-7-7-7-7-7-7-7-7-7-7-7-7-7-7-7-7-|
E|-3-3-3-3-3-3-3-3-3-3-3-3-3-3-3-3-5-5-5-5-5-5-5-5-5-5-5-5-5-5-5-5-|

E|----------|
B|----------|
G|-9--7--5--| CHORUS END 1
D|-9--7--5--|
A|-7--5--3--|
E|----------|



BRIDGE:

E|------------|----------------------|
B|------------|----------------------|
G|-5----------|-5--------------------|
D|-5--------5-|-5--------5--5----5-5-|
A|-3--------5-|-3--------5--5----5-5-|
E|----------3-|----------3--3----3-3-|




END:

E|------------------|
B|------------------|
G|------------------|
D|-2-2-2-2-2-2--2-2-|
A|-2-2-2-2-2-2--2-2-|
E|-0-0-0-0-0-0--0-0-|
Tap to rate this tab
# A B C D E F G H I J K L M N O P Q R S T U V W X Y Z