Song name
# A B C D E F G H I J K L M N O P Q R S T U V W X Y Z

Orianthi - Dont Tell Me That Its Over tab

I don't know if the intro's and chords are 100% so if you see any mistakes you can 
message me on my UG profile: http://profile.ultimate-guitar.com/jordyvanzeeland/

You can play the C's in the chorus also as Cadd9

Orianthi - Don't Tell Me That It's Over

Intro
E-------------------------------------------------------------------------------|
B--11-10-6------------------11-10-6---------------------------------------------|
G------------6-7-8-11/12--------------6-7-8-11/12/11/12---11/12-8-6-------------|
D-------------------------------------------------------------------------------|
A-------------------------------------------------------------------------------|
E-------------------------------------------------------------------------------|

Verse 1:
   Cadd9		         Em
So cold, it's not just the breeze
             Cadd9		          Em
Now that I'm standing alone, we used to be
      Cadd9				              Em
And I tell myself I'll be alright, once I'm back in your arms
	    Cadd9           	    D
Till that day, I'll keep holding on

Chorus:
     G     D  C		       	 Em
If I close my eyes, thats when I'll see you
     G     D C		             Em
If I dream tonight, thats when I'll feel you
C		      D
Can you feel this too?
	      C
Am I coming through?
Don't tell me that it's over

Intro 2:
E--------------------------------------------------------------------------------|
B--11-10-6-----------------------------------------------------------------------|
G------------6-7-8-11/12-----11/12-8-6-4/6---------------------------------------|
D--------------------------------------------------------------------------------|
A--------------------------------------------------------------------------------|
E--------------------------------------------------------------------------------|

Verse 2:
   Cadd9		        Em
So old, been living each day
	        Cadd9			                Em
I've tried my best to move on, stuck in this crazy place
      Cadd9				     Em
But I tell myself I'll be alright, once I'm back in your arms
	    Cadd9		          D
Till that day, I'll keep holding on

     G     D  C		             Em
If I close my eyes, thats when I'll see you
     G     D C		             Em
If I dream tonight, thats when I'll feel you
C		      D
Can you feel this too?
	      C
Am I coming through?
Don't tell me that it's over

     G     D  C		             Em
If I close my eyes, thats when I'll see you
     G     D  C		             Em
If I dream tonight, thats when I'll feel you

Chorus
Tap to rate this tab
# A B C D E F G H I J K L M N O P Q R S T U V W X Y Z