Song name
# A B C D E F G H I J K L M N O P Q R S T U V W X Y Z

Orianthi - According To You chords

Highlighted       Show chord diagrams
Hi! I play this song with power chords.  Hope it helps (;


Intro: F, C


Verse 1:
              F          C
According to you, i'm stupid, i'm useless, 
    Dm                 Bb                F
I can't do anything right. According to you
       C                          Dm                   Bb
I'm difficult, hard to please, forever changing my mind.
 F                C                      Dm                    Bb
I'm a mess in a dress, can't show up on time, even if it would save my life.
              F                 Dm   
According to you. According to you.

e|-----------------------------------------------------------------|
B|---------1---------------1---------------1---------------1-------|
G|-----0-------0-------0-------0-------0-------0-------0-------0---|
D|-3---------------3---------------3---------------3---------------|
A|-----------------------------------------------------------------|
E|-----------------------------------------------------------------|


e|-1---1---1---1---3---3---3---3---1---1---1---1---3---|
B|---1---1---1---1---1---1---1---1---1---1---1---1-----|
G|-----------------------------------------------------|
D|-----------------------------------------------------|
A|-----------------------------------------------------|
E|-----------------------------------------------------|



Chorus:
                 Bb        C        
But according to him i'm beautiful, incredible,
Dm                           G
He can't get me out of his head.
              Bb         C
According to him, i'm funny, irresistible,
 Dm                  G
everything he ever wanted.
Bb                      C 
Everything is opposite, I don't feel like stopping it,
Dm                           G
Baby tell me what I got to lose.
      Bb                         C              
He's into me for everything I'm not according to you.


[Solo] 
e---------8h9b-------10h12b--------------|
B-------8h9-----/10h12-------------------|
G----------------------------------------|
D----------------------------------------|
A----------------------------------------|
E----------------------------------------|



Verse 2:
              F         C
According to you, i'm boring,
            Dm                    Bb
I'm moody, you can't take me any place.
              F      C
According to you I suck at telling jokes 
     Dm                 Bb
cause I always give it away.
F                      C               Dm
I'm the girl with the worst attention span;
                         Bb
you're the boy who puts up with that.
              F                 Dm
According to you. According to you.

(chorus)


Bridge:

Dm               Bb
I need to feel appreciated,
      F             C   
like I'm not hated. oh... no...
Dm             Bb
Why can't you see me through his eyes?
Bb
It's too bad you're making me dizzy.


Solo: Bb, C, Dm, G
      Bb, C, Dm, G

Pre-Chorus:
             F             C
According to me, you're stupid,
                     Dm                Bb
you're useless, you can't do anything right.


Chorus:
                  Bb        C 
But according to him, i'm beautiful, incredible,
Dm                           G
he can't get me out of his head.
              Bb        C
According to him, i'm funny, irresistible,
 Dm                  G
everything he ever wanted.
 Bb                     C
Everything is opposite, I don't feel like stopping it,
Bb                          G
baby tell me what I got to lose.
      Bb                         C
He's into me for everything I'm not,
              Bb
according to you. According to you. 

Outro: F, C, Dm





| /    slide up
| \    slide down
| H    hammer-on
| p    pull-off
| ~    hold note
Tap to rate this tab
 
# A B C D E F G H I J K L M N O P Q R S T U V W X Y Z