Guitaretab - guitar tabs
Song name
# A B C D E F G H I J K L M N O P Q R S T U V W X Y Z

Orient Pearl - Cry In The Rain tab

-------------------------------------------------------------------------------
			     Cry in the Rain  Orient Pearl
-------------------------------------------------------------------------------
Tabbed by: rakizta_ralph
Email: fast_break20@yahoo.com.ph (friendster.com)

Tuning: STANDARD

2min:23sec

e|------------------------------------------------9----------|
B|--14~-12p11-12/14-------14~-14b-12-11-12b-11-9b---9b-7~\---|
G|------------------11~\-------------------------------------|
D|-----------------------------------------------------------|
A|-----------------------------------------------------------|
E|-----------------------------------------------------------|
[ Tab from: http://www.guitaretab.com/o/orient-pearl/178312.html ]
E|---------9---------------------------------------------------|
B|------9b---9b-7-6h7p6----------------------------------------|
G|--6/8-----------------8-6------------------------------------|
D|--------------------------9-8-6\-6h8h9-6h8h9-8h9h11-8h9h11---|
A|-------------------------------------------------------------|
E|-------------------------------------------------------------|

e|----------------------------------------14-13------------|
B|-------------------------------------14-------14-14b-----|
G|---------------------------------------------------------|
D|--9h11h13-9h11h13-13h15h16-13h15h16~---------------------|
A|---------------------------------------------------------|
E|---------------------------------------------------------|

e|------------------------------------------|
B|--14-12-11-12-11h12p11-9-11-12/14-/17~----|
G|------------------------------------------|
D|------------------------------------------|
A|------------------------------------------|
E|------------------------------------------|

| /  slide up
| \  slide down
| h  hammer-on
| p  pull-off
| ~  vibrato
| +  harmonic
| x  Mute note
===============================================================================

Related for Cry In The Rain tab