Song name
# A B C D E F G H I J K L M N O P Q R S T U V W X Y Z

Orient Pearl - Pagsubok tab

solo tab by jherome N, cadorna
 try this 

|--9s-10-----12b----10---12-----------------------------------------------------|
|---------------------------7---12---10---8--10s--12---10-10s--12---8--8s---10--|
|-------------------------------------------------------------------------------|
|-------------------------------------------------------------------------------|
|-------------------------------------------------------------------------------|
|-------------------------------------------------------------------------------|

|-----------------------------------------------------------------------------|
|---7--8---7---------------------12---10-----------10----8-------------8----7-|
|--------------9--7-----------------------------------------------------------|
|--------------------5----12-------------5----11--------------5-----9---------|
|-----------------------------------------------------------------------------|
|-----------------------------------------------------------------------------|


|---------------------------------17--15--14--15-12--14--10---12---7---10------|
|------------------------------------------------------------------------------|
|-------9---7---9--------------------------------------------------------------|
|------------------------------------------------------------------------------|
|------------------------------------------------------------------------------|
|------------------------------------------------------------------------------|

|-----10-----12----14----15------14-------10-------------|
|--------------------------------------------------------|
|--------------------------------------------------------|
|--------------------------------------------------------|
|--------------------------------------------------------|
|--------------------------------------------------------|

s= slide
b= Bend
Tap to rate this tab
 
# A B C D E F G H I J K L M N O P Q R S T U V W X Y Z