Song name
# A B C D E F G H I J K L M N O P Q R S T U V W X Y Z

Origin - Lethal Manipulation tab

-------------------------------------------------------------------------------
			     Lethal Manipulation - Origin
-------------------------------------------------------------------------------
Tabbed by: Anonymous

Tuning:B,F#,B,E,G#,C#

Riff 1a 
|------------------------------------------------| 
|------------------------------------------------| 
|------------------------------------------------| 
|------------------------------------------------| 
|------------------------------------------------| 
|-6666-11-22-6666-11-22-6666-11-22-11-1/2-11-1/2-| 
       .. ..      .. ..      .. .. ..     .. 


Riff 1b 
|------------------------------------------------------------| 
|------------------------------------------------------------| 
|------------------------------------------------------------| 
|------------------------------------------------------------| 
|------------------------------------------------------------| 
|-10101010-11-22-10101010-11-22-10101010-11-22-11-1/2-11-1/2-| 
            .. ..         .. ..          .. .. ..     .. 


Riff 1a 
|------------------------------------------------| 
|------------------------------------------------| 
|------------------------------------------------| 
|------------------------------------------------| 
|------------------------------------------------| 
|-6666-11-22-6666-11-22-6666-11-22-11-1/2-11-1/2-| 
       .. ..      .. ..      .. .. ..     .. 


Fill Guitar 1 
|-------------------------------------------------| 
|-------------------------------------------------| 
|-------------------------------------------------| 
|--------------------------------------5--4-5-6-5-| 
|-1/2-11-111-111-0000-11-11-0000-11-11-5--4-5-6-5-| 
|     .. ... ...      .. ..      .. ..    . . 
| 
| 
|Guitar 2 
|-------------------------------------------------| 
|-------------------------------------------------| 
|-------------------------------------------------| 
|--------------------------------------5--4-5-6-5-| 
|-1/2-11-111-111------11-11------11-11-5--4-5-6-5-| 
      .. ... ...      .. ..      .. ..    . . 


Riff 2 
|------------------------------------------------------| 
|------------------------------------------------------| 
|------------------------------------------------------| 
|------------------------------------------------------| 
|-------------------------------------------5--4-5-6-5-| 
|-1111-11-1111-11-0000-1111-11-0000-1111-11-5--4-5-6-5-| 
  .... .. .... ..      .... ..      .... ..    . . 


Riff 3 
|----------------------------------------------------------------------| 
|----------------------------------------------------------------------| 
|----------------------------------------------------------------------| 
|----------------------------------------------------------------------| 
|-----------------------------------------------------------5--4-5-6-5-| 
|-1111-11-1111-1111-1111-1111-1111-1111-1111-1111-1111-1111-5--4-5-6-5-| 
  .... .. .... .... .... .... .... .... .... .... .... ....    . . 


Riff 2 
|------------------------------------------------------| 
|------------------------------------------------------| 
|------------------------------------------------------| 
|------------------------------------------------------| 
|-------------------------------------------5--4-5-6-5-| 
|-1111-11-1111-11-0000-1111-11-0000-1111-11-5--4-5-6-5-| 
  .... .. .... .. .... .... .. .... .... ..    . . 


Riff 4a 
|--------------------------------------------------------------| 
|--------------------------------------------------------------| 
|--------------------------------------------------------------| 
|--------------------------------------------------------------| 
|-------6--------6--------6-7-6-3-6--------6--------5--------4-| 
|111-11-6-111-11-6-11-111-6-7-6-3-6-111-11-6-111-11-5-111-11-4-| 
 ... ..   ... ..   .. ...           ... ..   ... ..   ... ..    


|---------------------| 
|---------------------| 
|---------------------| 
|---------------------| 
|---------------------| 
|-111-1-2-1-0-1-0-1-2-| 
  ... . . . . . . . . 


Riff 4b 
|--------------------------------------------------- -----------| 
|-------------------------------------------------- ------------| 
|------------------------------------------------ --------------| 
|------------------------------------------------- -------------| 
|-------6--------6--------9-10-9-6-6--------6--------5--------4-| 
|111-11-6-111-11-6-11-111-9-10-9-6-9-111-11-6-111-11-5-111-11-4-| 
 ... ..   ... ..   .. ...            ... ..   ... ..   ... ..    


|---------------------| 
|---------------------| 
|---------------------| 
|---------------------| 
|---------------------| 
|-111-1-2-1-0-1-0-1-2-| 
  ... . . . . . . . . 

Riff 4a 
|--------------------------------------------------------------| 
|--------------------------------------------------------------| 
|--------------------------------------------------------------| 
|--------------------------------------------------------------| 
|-------6--------6--------6-7-6-3-6--------6--------5--------4-| 
|111-11-6-111-11-6-11-111-6-7-6-3-6-111-11-6-111-11-5-111-11-4-| 
 ... ..   ... ..   .. ...           ... ..   ... ..   ... ..    


|---------------------| 
|---------------------| 
|---------------------| 
|---------------------| 
|---------------------| 
|-111-1-2-1-0-1-0-1-2-| 
  ... . . . . . . . . 


Riff 5 (Probably wrong, very hard to hear) 
|---------------------------------| 
|---------------------------------| 
|---------------------------------| 
|---------------------------------| 
|-2-1-2-3-2-1-2-3-2-1-2-3-2-1-3-4-| 
  . . . . . . . . . . . . . . . . 

Fill 
|-------------------| 
|-------------------| 
|-------------------| 
|-------------------| 
|-------------------| 
|-2-1-2-3-2-1-2-3-0-| 
  . . . . . . . . . 


Pre Riff 6 Guitar 1 
|--------------------------------------------------| 
|--------------------------------------------------| 
|--------------------------------------------------| 
|--------------------------------------------------| 
|12"-9"----11"-9"-8"-9"---12"-9"----13"-12"-10"-9"-| 
|-------12--------------0--------12----------------| 
|                        
| 
| 
| 
|Guitar 2 
|---------------------------------------------------| 
|---------------------------------------------------| 
|---------------------------------------------------| 
|---------------------------------------------------| 
|---------------------------------------------------| 
|----------------------0------------111-111-111-111-| 
                                    ... ... ... ... 


Guitar 1 
|----------------------------------------------------| 
|----------------------------------------------------| 
|----------------------------------------------------| 
|----------------------------------------------------| 
|---12"-9"----11"-9"-8"-9"---12"-9"----2-1-2-3-222-11| 
|-0--------12--------------0--------12-2-1-2-3-222-11| 
|                                      . . . . . . .. 
| 
| 
| 
|Guitar 2 
|----------------------------------------------------| 
|----------------------------------------------------| 
|----------------------------------------------------| 
|----------------------------------------------------| 
|--------------------------------------2-1-2-3-222-11| 
|-0------------------------0-----------2-1-2-3-222-11| 
                                       . . . . . . .. 


Riff 6a 
|--------------------------------------------------| 

|--------------------------------------------------| 
|--------------------------------------------------| 
|--------------------------------------------------| 
|12"-9"----11"-9"-8"-9"---12"-9"----13"-12"-10"-9"-| 
|-------12--------------0--------12----------------| 
                          


|----------------------------------------------------| 
|----------------------------------------------------| 
|----------------------------------------------------| 
|----------------------------------------------------| 
|---12"-9"----11"-9"-8"-9"---12"-9"----2-1-2-3-222-11| 
|-0--------12--------------0--------12-2-1-2-3-222-11| 
|                                      . . . . . . .. 


Riff 7 

|---------------------------------| 
|---------------------------------| 
|---------------------------------| 
|---------------------------------| 
|---------------------------------| 
|-000-000-000-000-0-1-2-3-2-1-2-3-| 
  ... ... ... .... . . . . . . . . 

Riff 8 
|-------------------------------------------------------| 
|-------------------------------------------------------| 
|-------------------------------------------------------| 
|-------------------------------------------------------| 
|-------------------------------------------------------| 
|-00000000-0-1-2-3-2-1-2-3-0000-000-000-0-1-2-3-2-1-2-3-| 
           . . . . . . . .      ... ... . . . . . . . . 

|---------------------------------------------------| 
|---------------------------------------------------| 
|---------------------------------------------------| 
|---------------------------------------------------| 
|---------------------------------------------------| 
|-0000-0-1-2-3-2-1-2-3-0000-000-000-1-2-3-2-1-2-3-0-| 
       . . . . . . . .      ... ... . . . . . . .  


Pre Riff 6 Guitar 1 
|---------------------------------------------------| 
|---------------------------------------------------| 
|---------------------------------------------------| 
|---------------------------------------------------| 
|12"-9"----11"-9"-8"-9"---12"-9"----13"-12"-10"-12"-| 
|-------12--------------0--------12-----------------| 
|                        
| 
| 
| 
|Guitar 2 
|----------------------------------------------------| 
|----------------------------------------------------| 
|----------------------------------------------------| 
|----------------------------------------------------| 
|----------------------------------------------------| 
|----------------------0-------------111-111-111-111-| 
                                     ... ... ... ... 


Guitar 1 
|----------------------------------------------------| 
|----------------------------------------------------| 
|----------------------------------------------------| 
|----------------------------------------------------| 
|---12"-9"----11"-9"-8"-9"---12"-9"----2-1-2-3-222-11| 
|-0--------12--------------0--------12-2-1-2-3-222-11| 
|                                      . . . . . . .. 
| 
| 
| 
|Guitar 2 
|----------------------------------------------------| 
|----------------------------------------------------| 
|----------------------------------------------------| 
|----------------------------------------------------| 
|--------------------------------------2-1-2-3-222-11| 
|-1------------------------1-----------2-1-2-3-222-11| 
                                       . . . . . . .. 



Riff 6b 
|---------------------------------------------------| 
|---------------------------------------------------| 
|---------------------------------------------------| 
|---------------------------------------------------| 
|12"-9"----11"-9"-8"-9"---12"-9"----18"-17"-15"-14"-| 
|-------12--------------0--------12-----------------| 
                        . 
                        

|----------------------------------------------------| 
|----------------------------------------------------| 
|----------------------------------------------------| 
|----------------------------------------------------| 
|---12"-9"----11"-9"-8"-9"---12"-9"----2-1-2-3-222-11| 
|-1--------12--------------0--------12-2-1-2-3-222-11| 



Ending 
|---| 
|---| 
|---| 
|---| 
|-0-| 
|-0-| 
  .

.  - palm mute           /  - slide up to 
\  - slide down to       ~  - vibrato 
h  - hammer on           b  - Bend 
p  - pull off            Suffixes for bend 
t  - tap                 f  - full bend    h - half bend 
ph - pinched harmonic    q  - quarter bend t - tap bend 
*  - see comment         ^  - Hold bend    r release bend 
x  - Stuccatto           ~  - vibrato bend 
,  - slight palm mute    () - ghost note, sustained note 
"  - tremolo note        <> - Trill

===============================================================================
Tap to rate this tab
# A B C D E F G H I J K L M N O P Q R S T U V W X Y Z