Guitaretab - guitar tabs
Song name
# A B C D E F G H I J K L M N O P Q R S T U V W X Y Z
Home / O / Origin / Portal tab

Origin - Portal tab

-------------------------------------------------------------------------------
			     Portal - Origin
-------------------------------------------------------------------------------
Tabbed by: Anonymous

Tuning:B-F#-B-E-G#-C#

guitar one =  left channel
guitar two = right channel

RIFF 1 (0:00) =  2 times
Gtr. 1 
|---------------------------------------------------------------
|-------------------------6--5---9------------------------------
|-------------------------7--6--10-----------------------764----
|-------------------------7--6--10-----------8-8-8-8--------764-
|-------------------------5--4---8------------------------------
|-000000000000000000000000----------00000000-8-8-8-8-8-8--------

 ------------------------------------------------------------------||
 -------------------------6--5---9---------------------------------||
 -------------------------7--6--10------------------------1097-----||
 -------------------------7--6--10---------------11-----------1097-||
 -------------------------5--4---8---------------------------------||
 -000000000000000000000000----------000000000000-11-11-11----------||

RIFF 1 (0:00) = 2 times
Gtr. 2 
|---------------------------------------------------------------
|-------------------------6--5---9------------------------------
|-------------------------7--6--10------------------------------
|-------------------------7--6--10-----------8-8-8-8-----875----
|-------------------------5--4---8--------------------------875-
|-000000000000000000000000----------00000000-8-8-8-8-8-8--------

 --------------------------------------------------------------------||
 -------------------------6--5---9-----------------------------------||
 -------------------------7--6--10-----------------------------------||
 -------------------------7--6--10---------------11-------11108------||
 -------------------------5--4---8-----------------------------11108-||
 -000000000000000000000000----------000000000000-11-11-11------------||

RIFF 2 (0:16) = 2 times
Gtr. 1
|------------------------------------------------|
|------------------------------------------------|
|------------------------------------------------|
|------------------------------------------------|
|-----171717-171717-----171717-171717-----161616-|
|-0-0---------------0-0---------------0-0--------|
  . .               . .               . .

RIFF 2 continue Gtr. 1     third time
|-------------------------------------|
|-------------------------------------|
|-------------------------------------|
|-----15-15-15-----15-15-15ó----14-14-|
|-----17-17-17-----17-17-17-----16-16-|
|-0-0----------0-0----------0-0-------|
  . .          . .          . .

RIFF 2 continue Gtr. 1      last time
|-------------------------------------||
|-------------------------------------||
|-----14-14-14-----14-14-14-----13-13-||
|-----15-15-15-----15-15-15-----14-14-||
|-----17-17-17-----17-17-17-----16-16-||
|-0-0----------0-0----------0-0-------||
  . .          . .          . .


RIFF 2 (0:16) = 4 times
Gtr. 2        
|---------------------------------||
|---------------------------------||
|---------------------------------||
|---------------------------------||
|-----555-555-----555-555-----444-||
|-0-0---------0-0---------0-0-----||
  . .         . .         . .


RIFF 3 (0:25) = 2 times
Gtr. 1
|------------------------------------------------------------
|--------------------------------9-----------6-----------5---
|-10----------------------------10-----------7-----------6---
|-12----------------------------10-----------7-----------6---
|-12---------------------------------------------------------
|--0---333-333-33333333-333-333------333-333-----333-333-----
       NH----------------------      NH-----     NH-----

 ------------------------------------------------------------|
 ------------------------------------------------------------|
 ------------------------------------------------------------|
 ------------------------------------------------------------|
 ------------------------------------------------------------|
 -222-222-22222222-222-222-22222222-222-222-22222222-222-222-|
  NH--------------------------------------------------------






Gtr. 1 continue    third time
|--4----------------------------7-----------4-----------7---
|--6----------------------------9-----------6-----------9---
|--5----------------------------8-----------5-----------8---
|-----------------------------------------------------------
|-----------------------------------------------------------
|------333-333-33333333-333-333-----333-333-----333-333-----
       NH----------------------     NH-----     NH-----

 ------------------------------------------------------------||
 ------------------------------------------------------------||
 ------------------------------------------------------------||
 ------------------------------------------------------------||
 ------------------------------------------------------------||
 -999-999-99999999-999-999-99999999-999-999-99999999-999-999-||
  NH--------------------------------------------------------

Gtr. 1 continue          last time
|------------------------------------------------------------
|--------------------------------9-----------6-----------5---
|-10----------------------------10-----------7-----------6---
|-12----------------------------10-----------7-----------6---
|-12---------------------------------------------------------
|--0---333-333-33333333-333-333------333-333-----333-333-----
       NH----------------------      NH-----     NH-----

 ------------------------------------------------------------||
 ------------------------------------------------------------||
 ------------------------------------------------------------||
 ------------------------------------------------------------||
 ------------------------------------------------------------||
 -222-222-22222222-222-222-22222222-222-222-22222222-222-222-||
  NH--------------------------------------------------------

RIFF 3 (0:25) = 4 times
Gtr. 2
|-------------------------------------------------------------
|-------------------------------------------------------------
|-10----------------------------13-----------10-----------9---
|-12----------------------------15-----------12----------11---
|-12----------------------------15-----------12----------11---
|--0---000-000-00000000-000-000------000-000-----000-000------
       ... ... ........ ... ...      ... ...     ... ...

 ------------------------------------------------------------||
 ------------------------------------------------------------||
 ------------------------------------------------------------||
 ------------------------------------------------------------||
 ------------------------------------------------------------||
 -000-000-00000000-000-000-00000000-000-000-00000000-000-000-||
  ... ... ........ ... ... ........ ... ... ........ ... ...

RIFF 4 (0:57) = 2 times
Gtr. 1
|---------------------------------------------------
|---------------------------------------------------
|---------------------------------------------------
|---------------------------------------------------
|-------555555444444555555777777888888--0-1-2-0-1-2-
|-000000--------------------------------0-1-2-0-1-2-
                                        . . . . . .
 

 --------------------------------------------------|
 --------------------------------------------------|
 --------------------------------------------------|
 --------------------------------------------------|
 -------555555444444555555888888778877444444444444-|
 -000000-------------------------------------------|

RIFF 4 continue Gtr. 1      third time
|--------------------------------------------------------------------
|--------------------------------------------------------------------
|--------------------------------------------------------------------
|-------151515151515141414141414151515151515171717171717181818181818-
|--------------------------------------------------------------------
|-000000-------------------------------------------------------------

 ---------------------------------------------------
 ---------------------------------------------------
 ---------------------------------------------------
 --------------151515151515141414141414151515151515-
 --9-8-0-9-8-0--------------------------------------
 --9-8-0-9-8-0--------------------------------------
   . . . . . .

 --------------------------------------------------|
 --------------------------------------------------|
 --------------------------------------------------|
 -181818181818171718181717141414141414141414141414-|
 --------------------------------------------------|
 --------------------------------------------------|

RIFF 4 continue Gtr. 1      fourth time
|---------------------------------------------------
|---------------------------------------------------
|---------------------------------------------------
|---------------------------------------------------
|-------555555444444555555777777888888--0-1-2-0-1-2-
|-000000--------------------------------0-1-2-0-1-2-
                                        . . . . . .
 
 --------------------------------------------------||
 --------------------------------------------------||
 --------------------------------------------------||
 --------------------------------------------------||
 -------555555444444555555888888778877444444444444-||
 -000000-------------------------------------------||

RIFF 4 (0:57) = 2 times
Gtr. 2
|---------------------------------------------------
|---------------------------------------------------
|---------------------------------------------------
|---------------------------------------------------
|-------555555444444555555777777888888--0-1-2-0-1-2-
|-000000--------------------------------0-1-2-0-1-2-
                                        . . . . . .
 
 --------------------------------------------------|
 --------------------------------------------------|
 --------------------------------------------------|
 --------------------------------------------------|
 -------555555444444555555888888778877444444444444-|
 -000000-------------------------------------------|

RIFF 4 continue Gtr. 2     third time
|---------------------------------------------------
|---------------------------------------------------
|---------------------------------------------------
|---------------------------------------------------
|-------555555--------------------------0-1-2-0-1-2-
|-000000------777777666666222222333333--0-1-2-0-1-2-
                                        . . . . . .

 ---------------------------------------------|
 ---------------------------------------------|
 ---------------------------------------------|
 ---------------------------------------------|
 -------5555--555555-------------------4------|
 -000000----00------666666333333223322-6------|

[ Tab from: http://www.guitaretab.com/o/origin/114148.html ]
RIFF 4 continue Gtr. 2      fourth time 
|---------------------------------------------------
|---------------------------------------------------
|---------------------------------------------------
|---------------------------------------------------
|-------555555444444555555777777888888--0-1-2-0-1-2-
|-000000--------------------------------0-1-2-0-1-2-
                                        . . . . . .
 
 --------------------------------------------------||
 --------------------------------------------------||
 --------------------------------------------------||
 --------------------------------------------------||
 -------555555444444555555888888778877444444444444-||
 -000000-------------------------------------------||


RIFF 5 (1:22) = 2 times
Gtr. 1
|-------------------------------------------------------------
|-------------------------------------------------------------
|-------------10-----------------------------------10---10----
|-------------------------------------------------------------
|--------------8------------------------------------8---------
|-0------------0----------------------------------------------


 ------------------------------------------------|
 ------------------------------------------------|
 ------------------------------------------------|
 ------------------------------------------------|
 ------------------------------------------------|
 ------------------------6-6-6-6-6-6-3-3-0-3-6-3-|
                         . . . . . . . . . . . .


RIFF 5 continue Gtr. 1
|-------------------------------------------------------------
|-------------------------------------------------------------
|-------------10-----------------------------------10---10----
|-------------------------------------------------------------
|--------------8------------------------------------8---------
|-0------------0----------------------------------------------



 ----------------------------------------------------------------------||
 -------------------------------------------------------------15-15-15-||
 ------------------------------------------------131313131313-13-13-13-||
 ------------------------131313131313121212121212121212121212-12-12-12-||
 ------------------------111111111111101010101010101010101010----------||
 ----------------------------------------------------------------------||
  

Note: Ok next one is a bit hard to figure out.
      Gael think itís same figure as RIFF 6
      Me thinks itís a variation of it like this (RIFF 5)
      Choose for yourself
      


RIFF 5 (1:22) = 2 times
Gtr. 2
|-----------------------------------------------------------
|-----------------------------------------------------------
|-------------101010---------------------101010-------------
|-----666-666--6-6-6-666-666-----666-666--6-6-6-666---------
|-----888-888--------888-888-----888-888--------888---------
|-000------------------------000--------------------777-666-
  ... ... ...  . . . ... ... ... ... ...  . . . ... ... ...

 ------------------------------------------------|
 ------------------------------------------------|
 ---------101010---------------------------------|
 -666-666--6-6-6-666-666-------------------------|
 -888-888--------888-888-------------------------|
 ------------------------6-6-6-6-6-6-3-3-0-3-6-3-|
                         . . . . . . . . . . . .


RIFF 5 continue Gtr. 2
|-----------------------------------------------------------
|-----------------------------------------------------------
|-------------101010---------------------101010-------------
|-----666-666--6-6-6-666-666-----666-666--6-6-6-666---------
|-----888-888--------888-888-----888-888--------888---------
|-000------------------------000--------------------777-666-
  ... ... ...  . . . ... ... ... ... ...  . . . ... ... ...

 -------------------------------------------------||
 -------------------------------------------------||
 ---------101010---------------------------777777-||
 -666-666--6-6-6-666-666-------------666666-------||
 -888-888--------888-888-------555555-------------||
 ------------------------777777-------------------||
  ... ...  . . . ... ...


RIFF 6 (1:48)
Gtr.1     
|-----------------------------------------------------------
|-----------------------------------------------------------
|-------------101010---------------------101010-------------
|---------666--------666-------------666--------666---------
|-----888----------------888-----888----------------888-----
|-000------------------------000------------------------888-
  ... ... ... . . .  ... ... ... ... ... . . .  ... ... ...


 -----------------------------------------------------------||
 -----------------------------------------------------------||
 -------------101010---------------------101010-------------||
 ---------666--------666-------------666--------666---------||
 -----888----------------888-----888----------------888-----||
 -777------------------------666------------------------888-||
  ... ... ... . . .  ... ... ... ... ... . . .  ... ... ...



RIFF 6 (1:48)
Gtr.1    last two times         (scratching)
|------------------------------------------\----------||
|----------------------------------\------------------||
|-------------------------\---------------------------||
|-----------------\-----------------------------------||
|---------\-------------------------------------------||
|-----------------------------------------------------||


RIFF 6 continue Both Gtr. = 6 times    
|-----------------------------------------------------------
|-----------------------------------------------------------
|-------------101010---------------------101010-------------
|---------666--------666-------------666--------666---------
|-----888----------------888-----888----------------888-----
|-000------------------------000------------------------888-
  ... ... ... . . .  ... ... ... ... ... . . .  ... ... ...

 -----------------------------------------------------------||
 -----------------------------------------------------------||
 -------------101010---------------------101010-------------||
 ---------666--------666-------------666--------666---------||
 -----888----------------888-----888----------------888-----||
 -777------------------------666------------------------888-||
  ... ... ... . . .  ... ... ... ... ... . . .  ... ... ...

RIFF 7 (2:32) = 2 times
Gtr. 1
|-----------------------------------------------------------
|-----------------------------------------------------------
|-10-------------10-------------10-------------10-----------
|-12---12-12-12--12---12-12-12--12---12-12-12-------12------
|-12---12-12-12--12---12-12-12--12---12-12-12----------12---
|--0--------------0--------------0--------------------------

|---------2-times----------|------------------------------||
|--------------------------|------------------------------||
|--------------------------|------------------------------||
|--------------------------|------------------------------||
|-121212121212121212121212-|-1111111111118888111111118888-||
|--------------------------|------------------------------||

RIFF 7 (2:32) = 4 times
Gtr.2
|-----------------------------------------------------------
|--6--------------6--------------6-------------6------------
|--7----7--7--7---7----7--7--7---7----7--7--7--7----7-------
|--7----7--7--7---7----7--7--7ó--7----7--7--7--7----7--7----
|--5----5--5--5---5----5--5--5---5----5--5--5--5----5--5----
|--5----5--5--5---5----5--5--5---5----5--5--5--5----5--5----



|----------------------------------------------||
|----------------------------------------------||
|----------------------------------------------||
|----------------------------------------------||
|--------------------------4-------1---4---1---||
|-777777777777777777777777-6-------3---6---3---||

(2:44)    SOLO 
                 2 times
|---------1717----------17221717-----------|
|-------17----17------17--------17---------|
|-----18--------18--18------------18-------|
|---19------------19----------------19-----|
|-19----------------------------------1917-|
|------------------------------------------|

|-7h12p7h12p7h12/1712-------------11h16p11h16p11h16/2116------------||
|--------------------13---------------------------------17----------||
|----------------------14---------------------------------16--------||
|------------------------14---------------------------------18------||
|--------------------------1212\------------------------------1919\-||
|-------------------------------------------------------------------||

RIFF 8 (2:56)
Gtr.1
|---------------------------------|
|---------------------------------|
|-----------------------------6---|
|---------------------------------|
|-0-0---------0-0-------------4---|
|-0-0-000-000-0-0-000-000-0-0-----|
  . . ... ... . . ... ... . .

RIFF 8 (2:56)
Gtr.2
|---------------------------------|
|---------------------------------|
|-----------------------------6---|
|---------------------------------|
|-0-0---------0-0-------------4---|
|-0-0---------0-0---------0-0-----|
  . .         . .         . .

RIFF 2 (2:58)
Gtr.1              2 times
|------------------------------------------------|
|------------------------------------------------|
|------------------------------------------------|
|------------------------------------------------|
|-----171717-171717-----171717-171717-----161616-|
|-0-0---------------0-0---------------0-0--------|
  . . . . .  . . .  . . . . .  . . .  . . . . .

Gtr.1 continue  1 time / third
|-------------------------------------|
|-------------------------------------|
|-------------------------------------|
|-----15-15-15-----15-15-15-----14-14-|
|-----17-17-17-----17-17-17-----16-16-|
|-0-0----------0-0----------0-0-------|
  . .          . .          . .
 

Gtr.1 ending  5 times
|-------------------------------------||
|-------------------------------------||
|-----14-14-14-----14-14-14-----13-13-||
|-----15-15-15-----15-15-15-----14-14-||
|-----17-17-17-----17-17-17-----16-16-||
|-0-0----------0-0----------0-0-------||
  . .          . .          . .

RIFF 2 (2:58)
Gtr.2        4 times           
|-----------------------------------|
|-----------------------------------|
|-----------------------------------|
|-----------------------------------|
|-----555-555-----555-555-----444---|
|-0-0---------0-0---------0-0-------|
  . . ... ... . . ... ... . . ...    

Gtr. ending     4 times
|---------------------------------------||
|---------------------------------------||
|---------------------------------------||
|-----12-12-12-----12-12-12-----11-11---||
|-----14-14-14-----14-14-14-----13-13---||
|-0-0----------0-0----------0-0---------||
  . .          . .          . . 

END

.  - palm mute           /  - slide up to
\  - slide down to       ~  - vibrato
h  - hammer on           b  - Bend
p  - pull off            Suffixes for bend
t  - tap                 f  - full bend    h - half bend
ph - pinched harmonic    q  - quarter bend t - tap bend
*  - see comment         ^  - Hold bend    r release bend
x  - Stuccatto           ~  - vibrato bend
,  - slight palm mute    () - ghost note, sustained note
"  - tremolo note        <> - Trill

===============================================================================
Related for Portal tab