Song name
# A B C D E F G H I J K L M N O P Q R S T U V W X Y Z

Orla Gartland - Steps tab

Capo 1
Intro...
Play chords C, F, G (bar chord) and F to this picking pattern:

e-------------------------------------------------------------------------|
B-----1--1-----1--1-----1--1-----1--1------3--3-----3--3-----1--1---------|
G-----0--0-----0--0-----2--2-----2--2------4--4-----4--4-----2--2---------|
D-----2--2-----2--2-----3--3-----3--3------5--5-----5--5-----3--3---------|
A--3---------3------------------------------------------------------------|
E---------------------1-------1---------3--------3---------1------1-----3-|


Verse... (same thing)

 "And I'm running with my fake ID in my tights..."
e-------------------------------------------------------------------------|
B-----1--1-----1--1-----1--1-----1--1------3--3-----3--3-----1--1---------|
G-----0--0-----0--0-----2--2-----2--2------4--4-----4--4-----2--2---------|
D-----2--2-----2--2-----3--3-----3--3------5--5-----5--5-----3--3---------|
A--3---------3------------------------------------------------------------|
E---------------------1-------1---------3--------3---------1------1-----3-|

Chorus...

Am
Running with determination
F
Cause you are my destination
C
And I will search the nation
G
'Til it turns to frustration
Am
Ready to throw in the towel
F
Your smile turns into a growl
C
But pity me, I am alone and
G
I've ran so far from home

Am
1 step 2step 3step 4
F
All the steps you'll ever need and more
C
and I've ran them all and I'd step them all
G
again
Am
1step 2step 3step 4
F
All the steps you'll ever need and more
C
And I've ran them all just to get to
G
you
      F                G
And I wonder if you'd run them for me too?


Verse2...
 "And I'm scared of getting caught..."
e-------------------------------------------------------------------------|
B-----1--1-----1--1-----1--1-----1--1------3--3-----3--3-----1--1---------|
G-----0--0-----0--0-----2--2-----2--2------4--4-----4--4-----2--2---------|
D-----2--2-----2--2-----3--3-----3--3------5--5-----5--5-----3--3---------|
A--3---------3------------------------------------------------------------|
E---------------------1-------1---------3--------3---------1------1-----3-|



Chorus...

Am
Running with determination
F
Cause you are my destination
C
And I will search the nation
G
'Til it turns to frustration
Am
Ready to throw in the towel
F
Your smile turns into a growl
C
But pity me, I am alone and
G
I've ran so far from home

Am
1 step 2step 3step 4
F
All the steps you'll ever need and more
C
and I've ran them all and I'd step them all
G
again
Am
1step 2step 3step 4
F
All the steps you'll ever need and more
C
And I've ran them all just to get to
G
you
      F                G
And I wonder if you'd run them for me too?
Tap to rate this tab
 
# A B C D E F G H I J K L M N O P Q R S T U V W X Y Z