Song name
# A B C D E F G H I J K L M N O P Q R S T U V W X Y Z

Orla Gartland - Devil On My Shoulder tab

No Capo


Intro

  C                 G     C               F
E-------------------------------------------------|
B---1-----1-----1-----0-----1-----1-----1-----1---|
G-------------------------------------------------|
D-----2-----2-----2-----2-----2-----2-----2-3---2-|
A-3-----3-----3-----------3-----3-----3-----------|
E-------------------3-----------------------------|


Verse

  C                 G     C
E-------------------------------------------------|
B---1-----1-----1-----0-----1-----1-----1-----1---|
G-------------------------------------------------|
D-----2-----2-----2-----2-----2-----2-----2-----2-|
A-3-----3-----3-----------3-----3-----3-----3-----|
E-------------------3-----------------------------|

  F                 G     C
E-------------------------------------------------|
B---------------------------1-----1-----1-----1---|
G---2-----2-----2-----4-------2-----2-----2-----2-|
D-----3-----3-----3-----5-------------------------|
A-------------------------3-----3-----3-----3-----|
E-1-----1-----1-----3-----------------------------|

  G           F
E---------------|
B---0-----0-----|
G-------------2-|
D-----2-----2-3-|
A---------------|
E-3-----3-----1-|


Chorus

  Am  C           Am  C
E---------------------------------|
B-------1-----1---------1-----1---|
G-5-------2-----2-5-------2-----2-|
D---------------------------------|
A-----3-----3---------3-----3-----|
E-5/7-------------5/7-------------|

  F     G     C           F     G     C        F           G
E------------------------------------------------------------|
B---------------1-----1--------------------------------------|
G---2-----4-----------------2-----4---5-7-9-12---2-----2---4-|
D-----3-----5-----2-----2-----3-----3--------------3-----3-5-|
A-------------3-----3-----------------3-5-7-10---------------|
E-1-----3-----------------1-----3--------------1-----1-----3-|

(Repeat)



Bridge

  Am            C
E---------------------------|
B---1-----1---1---1-----1---|
G---------------------------|
D-----2-------------2-----2-|
A-0-----0---2---3-----3-----|
E---------------------------| x5

  Am          G     F
E-------------------------------------|
B---1-----1-----0---------------------|
G---------------------2-----2-----2---|
D-----2-----2-----2-----3-----3-----3-|
A-0-----0-----------------------------|
E-------------3-----1-----1-----1-----| x2


Chorus

  Am  C Am  C           F     G     C           F     G     C F G
E-----------------------------------------------------------------|
B-----1-------1-----1-----------------1-----1---------------------|
G-5-----5-----------------2-----4-------2-----2---2-----4---5-2-4-|
D---------------2-----2-----3-----5-----------------3-----5---3-5-|
A-----3-----3-----3-----------------3-----3-----------------3-----|
E-5/7---5/7-------------1-----3-----------------1-----3-------1-3-|


Outro

  C                 G     C               F
E-------------------------------------------------|
B---1-----1-----1-----0-----1-----1-----1-----1---|
G-------------------------------------------------|
D-----2-----2-----2-----2-----2-----2-----2-3---2-|
A-3-----3-----3-----------3-----3-----3-----------|
E-------------------3-----------------------------|

  C                 G     C                 G
E-------------------------------------------------|
B---1-----1-----1-----0-----1-----1-----1-----0---|
G-------------------------------------------------|
D-----2-----2-----2-----2-----2-----2-----2-----2-|
A-3-----3-----3-----------3-----3-----3-----------|
E-------------------3-----------------------3-----|

  Am                      C
E---------------------------------------|
B---1-----1-----1-----1-----1-----1-----|
G---------------------------------------|
D-----2-----2-----2-----2-----2-----2---|
A-0-----0-----------------3-----3-----3-|
E-------------4-----4-------------------|



Think I've had enough,
I must find my way,
I've fallen off the edge,
To find that I've gone blind,
You're leading me astray,
You haunt me like a ghost,
And that scares me the most.

There you are the devil on my shoulder,
Smiling as the flames are growing colder,
How can I believe in what I have?
For a little confidence I'll grab,
But when my hand goes out don't take it,
For I'm trying to make it on my own.

I feel it in my bones,
Any minute now,
This train of thought will leave the station,
My impatience
Will come out to play,
You've turned out to be
The only face I see.

There you are the devil on my shoulder,
Smiling as the flames are growing colder,
How can I believe in what I have?
For a little confidence I'll grab,
But when my hand goes out don't take it,
For I'm trying to make it on my own.

Running through these empty hallways
I can tell that I am not alone,
You spin a web in every room
And try to break the backbone that I've grown.
Will I make my own path
Or wander where I'm thrown?
Will I make my own path
Or wander where I'm thrown?

There you are the devil on my shoulder,
Smiling as the flames are growing colder,
How can I believe in what I have?
For a little confidence I'll grab
But when my hand goes out don't take it,
For I'm trying to make it on my own.

Will I make my own path or
Wander where I'm thrown?

Will I make my own path or
Wander where I'm thrown?
Tap to rate this tab
 
# A B C D E F G H I J K L M N O P Q R S T U V W X Y Z