Song name
# A B C D E F G H I J K L M N O P Q R S T U V W X Y Z

Ornans Floor - Everything We Have tab

Everything We Have
Ornans floor
tabbed by Karosyrup2


This is a really cool song ive been working on in the real song there are 4 guitars and 
only tabed 3 so i hope this helps Enjoy


Guitar 1:
--------------------------------------------------------|
--------------------------------------------------------|
--5-5-5-5----9--9--9--9---7-7-7-7-7-7-7-7---------------|
-7-7-7-7---10-10-10-10---9-9-9-9-9-9-9-9----------------|
--------------------------------------------------------|
--------------------------------------------------------|

Guitar 2:
----------15-12-------13---------------13-12-----------12-10-|
-12h13p12-------12h13---13p12-12h13p12-------12h13p12--------|
-------------------------------------------------------------|
-------------------------------------------------------------|
-------------------------------------------------------------|
-------------------------------------------------------------|


Guitar 1:
----------------------------------------------------------------|
----------------------------------------------------------------|
--9-7-5-7-5-----------------------------------------------------|
------------5-7-----7--7-7--7-7---------------------------------|
--------------------7--7-7--7-7---------------------------------|
--------------------5--5-5--5-5---------------------------------|

Verse:
C A C G

chorus:
 C
and when we are

thirsty you satisfy

you satisfy
 A
when we are

weak and weary
 G    A       
you give us life


Bridge:
   C
 and we give everything
             G
 we have for you

 Song Order:

  Intro
  Verse
  Chorus
  verse
  Chorus
  Bridge(x2)
  Chorus(x2)


I hope that it helps if there is a problem email me at karosyrup2@hotmail.com

In everything you do Worship God!
Tap to rate this tab
# A B C D E F G H I J K L M N O P Q R S T U V W X Y Z