Ornob - She Je Boshe Achhe tab

Intro-

..E. . . . . . . . .B. . . . . . . . . C#m . . . . . . . A . . . . . . . .
e|----0---|------0-|----0---|------0-||----0---|------0-|----0---|------0-|
B|--------|--4-----|--------|--4-----||--------|--4-----|--------|--4-----|
G|--4-----|4-------|--4-----|4-------||--4-----|4-------|--4-----|4-------|
D|--------|--------|--------|--------||--------|--------|--------|--------|
A|--------|--------|2-------|--------||4-------|--------|0-------|--------|
E|0-------|--------|--------|--------||--------|--------|--------|--------|

..E. . . . . . . . .B. . . . . . . . . C#m . . . . . . . A . . . . . . . .
e|----0---|------0-|----0---|------0-||----0---|------0-|----0---|--0---2-|
B|--------|--4-----|--------|--4-----||--------|--4-----|--------|--------|
G|--4-----|4-------|--4-----|4-------||--4-----|4-------|--4-----|4-------|
D|--------|--------|--------|--------||--------|--------|--------|--------|
A|--------|--------|2-------|--------||4-------|--------|0-------|--------|
E|0-------|--------|--------|--------||--------|--------|--------|--------|

..E. . . . . . . . .B. . . . . . . . . C#m . . . . . . . A . . . . . . . .
e|024-42--|--0-----|--------|--------||--------|--------|--------|--------|
B|--------|0-----4-|----4---|--4---2-||----2---|--2-----|--------|--------|
G|--------|--------|--4-----|4-------||--2-----|2-----4-|----2---|--2---1-|
D|--------|--------|--------|--------||--------|--------|--2-----|2-------|
A|--------|--------|2-------|--------||4-------|--------|0-------|--------|
E|0-------|--------|--------|--------||--------|--------|--------|--------|

..E. . . . . . . . .B. . . . . . . . . C#m . . . . . . . A . . . . . . . .
e|----0---|--0-----|--------|--------||--------|--------|--------|--------|
B|0-------|0-----4-|----4---|--4---2-||----2---|--2-----|--------|--------|
G|--------|--------|--4-----|4-------||--2-----|2-----4-|----1---|--------|
D|--------|--------|--------|--------||--------|--------|--------|2-------|
A|--------|--------|2-------|--------||4-------|--------|--------|--------|
E|0-------|--------|--------|--------||--------|--------|--------|--------|




       E          B    
She je boshe ache eka eka

C#m                A
Rongin shopno taar bunte
  
       E          B
She je cheye ache bhora chokhe

C#m                A  
Janalar pashe megh dhorte          


  


    E             B
Tar gun gun moner gaan batashe ghore

C#m                 A
Kaan pato mone pabe shunte 

E                      B  
Tar ronger tulir nache meghera chhote

C#m                  A   
Chokh melo jodi paro bujhte     




And it goes E-B-C#m-A...
Tap to rate this tab
 
# A B C D E F G H I J K L M N O P Q R S T U V W X Y Z