Guitaretab - guitar tabs
Song name
# A B C D E F G H I J K L M N O P Q R S T U V W X Y Z

Orphaned Land - Norra El Norra tab

Nora El Nora
Orphaned Land
Tabbed By:bal3it@yahoo.com

Mail me if u want any more tabs that aren't on the net
Any comments or suggestions are welcome


Intro:(Accustic Guitar)


     Em                      B7

Nora El Nora, ne'ezar begvura shuvi elay malki


Am          Em              Am      C

Dodi refa, nafshi nichsefa, lebeitach malchi

B7      Em            Am

lebeitach malchi,   Nora El Nora

   B7               Em    **
Nora El Nora, ne'ezar begvura

**Now comes the HEavy Guitar :(00:20) (2 TImes)


E----------------------------------------------------------------------|
B----------------------------------------------------------------------|
G----------------------------------------------------------------------|
D----------------------------------------------------------------------|
A----------------------------------------------------------------------|
E--0---0-0--0-0--0-0---0-0-00---0--0-0--0-0--(SO ON)-------------------|
PM .   . .  . .  . .   . . .    .  . .  . .
Listen to the song for the rythm(He's only playing E's all the way)
its easy to figure it.


NOw they play the intro With the same Chords But W/ DIstortion

After Play Heavy Riff

SOLO:(00:58)
U can play it with a classical guitar
The Rythm for the solo Is played With An E Note  Palm Muted
a-------|
E---0---|
   PM

E---------------------------------------------------------------------|
B----4h5---5-5-7---7-7-8--8-8-8--8/10---10--10--8--7-8-5----5-7-8-----|
G---------------------------------------------------------------------|
D---------------------------------------------------------------------|
A---------------------------------------------------------------------|
E---------------------------------------------------------------------|
[ Tab from: http://www.guitaretab.com/o/orphaned-land/58881.html ]
E----------------------------------------------------------------------|
B--10-10-10-10--8-7--8-10-12--10-8-10--8-7-8--7-5-7---5--5h7-5---------|
G----------------------------------------------------------------------|
D----------------------------------------------------------------------|
A----------------------------------------------------------------------|
E----------------------------------------------------------------------|


E----------------------------------------------------------------------|
B---7-5-4-5-4-----7-5-4-5-4-------4-5-7--8--7h8p7---5------------------|
G-------------5-------------5---5--------------------------------------|
D----------------------------------------------------------------------|
A----------------------------------------------------------------------|
E----------------------------------------------------------------------|


@(1:17)Heavy Riff Is played


E5            A5            E5
Nora Ashira, Lach akabira, shir mahalali
                                                (2x)
E5           A5            E5
Lecha etna menat chevly vegoraly

In the end of each line there is a little riff on the D string:


E----------------------------------------------------------------------|
B----------------------------------------------------------------------|
G----------------------------------------------------------------------|
D-----4b---2-----------------------------------------------------------|
A----------------------------------------------------------------------|
E----------------------------------------------------------------------|


 E         B7             D             E
Bekol zman azor el nora, geza avraham, netzer tifa'ara,

Em        D    C    B7
Ata el hai noten torah


The Song Continues With A piano PLaying While Some Chords are Being Strummed
Related for Norra El Norra tab
Advertisement will be closed in 10 seconds