Song name
# A B C D E F G H I J K L M N O P Q R S T U V W X Y Z

Orphaned Land - Ocean Land tab

-------------------------------------------------------------------------------
			     ocean land - orphaned land
-------------------------------------------------------------------------------
Tabbed by:abed el rahman baayoun
Email:saharienrebel@hotmail.com

Tuning:standard tuning ebgdae


this part is really tricky because it's played on oriental and arabic instruments "oud"
"bouzouk" so it's hard to tab on guitar here is something close but you don't get the
oriental vibe try playing it in Spanish style struck up and down very quickly, the intro 
really quick so there's no pauses the E string is not an obligation to play but it's
that way i don't know you be the judge.
intro:moderated for guitar
e|---------------------------------------------------------------------------|
B|---------------------------------------------------------------------------|
G|-2-2-2-2-2-2-2-2-2---2-2-2-2-2-2-2-2-2-2-2h3-3-3-2-3-3-2-3-----------------|
D|-0-0-0-0-0-0-0-0-0---0-0-0-0-0-0-0-0-0-0-0-0-0-0-0-0-0-0-0-----------------|
A|-0-0-0-0-0-0-0-0-0---0-0-0-0-0-0-0-0-0-0-0-0-0-0-0-0-0-0-0-----------------|
E|-0-0-0-0-0-0-0-0-0---0-0-0-0-0-0-0-0-0-0-0-0-0-0-0-0-0-0-0-----------------|
   < < > < > < > < >   < < > < > < > < > < > < < <   < <
e|---------------------------------------------------------------------------|
B|---------------------------------------------------------------------------|
G|-0-0-0-5-5-3-5-------------------------------------------------------------|
D|-0-0-0-0-0-0-0-------------------------------------------------------------|
A|-0-0-0-0-0-0-0-------------------------------------------------------------|
E|-0-0-0-0-0-0-0-------------------------------------------------------------|

the intro distortion verse is missing i didn't tab it but i tabbed this soloish intro
thing
played{2 times}

e|---------------------------------------------------------------------------|
B|---------------------------------------------------------------------------|
G|-7-9-10----9----7-9-10----9--------------7---------------------------------|
D|--------10---7---------10---7--5-5-7/8/7---7-7-7-10-10-10-10-10------------|
A|---------------------------------------------------------------------------|
E|---------------------------------------------------------------------------|
   ~      ~    ~  ~      ~    ~                    **************
please rate this tab

| *  slightly bend slowly
| <  struke down
| >  stuke up
| /  slide up
| \  slide down
| h  hammer-on
| p  pull-off
| ~  vibrato
| +  harmonic
| x  Mute note
===============================================================================
Tap to rate this tab
# A B C D E F G H I J K L M N O P Q R S T U V W X Y Z