Song name
# A B C D E F G H I J K L M N O P Q R S T U V W X Y Z

Orphaned Land - The Storm Still Rages tab

Help us improve GuitareTab! Take a short survey!
----------------------------------------------------------------------------|
----------------------------------------------------------------------------|
----------------------------------------------------------------------------|
-12b--10--------------------------10----------------10-12-12b-12b-10-12bbb--|
---------13-12-10-12bb---10-12-13----13-12-13-15--10------------------------|
----------------------------------------------------------------------------|

--------------------------------------8h9-8----------------------------------|
--------------11--------------8-9-11--------11-9-8------8-8h9-8--------------|
-----8-10-10b----10b-8-10---10---------------------10-8-----------8-10bbb----|
-s10------------------------------------------------------------10-------10--|
-----------------------------------------------------------------------------|
-----------------------------------------------------------------------------|

----------------------------------------------------------------------------|
----------------16-14-13----------------------------------------------------|
-------------------------15-13-12--------10-10-9h10-9----13-13-12h13-12-----|
--10-12-13-14b--------------------15-13--------------11-----------------14--|
----------------------------------------------------------------------------|
----------------------------------------------------------------------------|

--------------15-14h15-14--------------------------------------------------|
-----------15-------------15-----17b---------------------------------------|
-----14-16--------------------14-------------------------------------------|
--16-----------------------------------------------------------------------|
---------------------------------------------------------------------------|
---------------------------------------------------------------------------|

I wrote this tabs from hearing so i hope its accurate
Related for The Storm Still Rages tab