Song name
# A B C D E F G H I J K L M N O P Q R S T U V W X Y Z

Orson - Broken Watch tab

The song is all in the key of C# so you can work out the rest

|----14----14----14----14----|----14----14----14----14----|
|-12----14----12----14----12-|-12----14----12----14----12-|
|.---------------------------|----------------------------|
|----------------------------|----------------------------|
|.---------------------------|----------------------------|
|----------------------------|----------------------------|


|----14----14----14----14----|----14----14----14----14----|
|-12----14----12----14----12-|-12----14----12----14----12-|
|----------------------------|----------------------------|
|----------------------------|----------------------------|
|----------------------------|----------------------------|
|----------------------------|----------------------------|

|----14----14----14----14----|----14----14----14----14----|
|-12----14----12----14----12-|-12----14----12----14----12-|
|----------------------------|----------------------------|
|----------------------------|----------------------------|
|----------------------------|----------------------------|
|----------------------------|----------------------------|

|----14----14----14----14----|----14----14----14----14----|
|-12----14----12----14----12-|-12----14----12----14----12-|
|----------------------------|---------------------------.|
|----------------------------|----------------------------|
|----------------------------|---------------------------.|
|----------------------------|----------------------------|
Tap to rate this tab
# A B C D E F G H I J K L M N O P Q R S T U V W X Y Z