Song name
# A B C D E F G H I J K L M N O P Q R S T U V W X Y Z

Orson - Aint No Party tab

-------------------------------------------------------------------------------
			     A'int No Party - Orson
-------------------------------------------------------------------------------
Tabbed by: Aron
Email: goodsum@hotmail.com

Tuning: Standard


Intro

guitar 1
e|---------------------------|
B|--9-12-9-7------------7b9--|
G|-----------9--6----6-------|
D|-----------------9---------|
A|---------------------------|
E|---------------------------|

guitar 2
e|---------------------------|
B|--5p4h5---4---4h5p4h5---4--|
G|--6p4h6---4---4h6p4h6---4--|
D|--6p4h6---4---4h6p4h6---4--|
A|---------------------------|
E|---------------------------|


Verse

guitar 1 (0:23)
e|--------------------------------------------------------------|
B|----------------------------------777777777777777777-7p5h7-5--|
G|--666666666666666666-6p4h6------------------------------------|
D|--------------------------------------------------------------|
A|--------------------------------------------------------------|
E|--------------------------------------------------------------|


guitar 2 (0:16)
e|---------------------------|
B|--5p4h5---4---4h5p4h5---4--|
G|--6p4h6---4---4h6p4h6---4--|
D|--6p4h6---4---4h6p4h6---4--|
A|---------------------------|
E|---------------------------|


Pre-Chorus


guitar 1
e|---------------------------|
B|--11-11-11-11-11-11-11-11--|
G|--11-11-11-11-11-11-11-11--|
D|--11-11-11-11-11-11-11-11--|
A|--9--9--9--9--9--9--9--9---|
E|---------------------------|


guitar 2
e|-------------------|
B|--5-5-5-5-5-5-5-5--|
G|--6-6-6-6-6-6-6-6--|
D|--6-6-6-6-6-6-6-6--|
A|--4-4-4-4-4-4-4-4--|
E|-------------------|


Chorus

guitar 1
e|-----------------------------------|
B|-------9-12-9p7--------9-12-9p7----|
G|----------------9---------------9--|
D|-----------------------------------|
A|-----------------------------------|
E|-----------------------------------|

e|------|
B|--11--|
G|--11--|
D|--11--| < at end of chorus
A|--9---|
E|------|


guitar 2
e|-----------------------------|
B|--11--------8--------5-------|
G|--11--x8----8--x8----6--x16--|
D|--11--------8--------6-------|
A|-----------------------------|
E|-----------------------------|

e|------|
B|--11--|
G|--11--|
D|--11--| < at end of chorus
A|--9---|
E|------|



Bridge

guitar 2
e|----------------------------------------------------------------------|
B|------------------------------12-11--------12-11----------------------|
G|--9--9-99--9-99-99--11--11-11-11-11--11-11-11-11--7--7-77--7--77--77--|
D|--9--9-99--9-99-99--11--11-11-11-11--11-11-11-11--7--7-77--7--77--77--|
A|--7--7-77--7-77-77--9---9--9--9--9---9--9--9--9---5--5-55--5--55--55--|
E|----------------------------------------------------------------------|


Solo

guitar 1
e|-12-12b--------------------------------------------8-------------------|
B|---------------7--------7b9-----------------7--------9b10------8b10r8--|
G|--------7-10-7---7-10-7-----10-7-----7-10-7---7-10--------10-7---------|
D|---------------------------------10------------------------------------|
A|-----------------------------------------------------------------------|
E|-----------------------------------------------------------------------|


e|----------------8-------------------------------------|
B|---------7~-------9b10-----------14-14-14-14-14---~---|
G|--7-10-7---7-10---------10-7-----11-11-11-11-11b13~---|
D|-----------------------------10-----------------------|
A|------------------------------------------------------|
E|------------------------------------------------------|


| /  slide up
| \  slide down
| h  hammer-on
| p  pull-off
| ~  vibrato
| +  harmonic
| x  Mute note
===============================================================================
Tap to rate this tab
# A B C D E F G H I J K L M N O P Q R S T U V W X Y Z