Song name
# A B C D E F G H I J K L M N O P Q R S T U V W X Y Z

Os Haxixins - Espelho Invisivel chords

Highlighted       Show chord diagrams
Band: Os Haxixins (http://www.myspace.com/oshaxixins)
Song: Espelho Invisível (Fiuza, Romera, Sir Uly, Sergio)

		
Intro (with super Fuzz)

e|----8-10-8----8-10-10-8-----8-10-8----8-10-10---|
B|-10--------10------------10--------10-----------|
G|------------------------------------------------|
D|------------------------------------------------|

e|--10b--10-8-------------------------8-10---8---8-10-10-8--|
B|-------------10---10-12--12-8----10-----------------------|
G|----------------------------------------------------------|
D|----------------------------------------------------------|

 Dm   Am
De repente na minha frente (na minha frente)
 Dm   Am
Vi o que não conseguia (não conseguia)
 Dm   Am
No espelho refletia (refletia)
 Dm   Am                Am    C
O que já não posso ver (posso ver)
 Am    C
Posso ver!

RIFF (play together the verses)

e|--------------------------------------------------------------------------|
B|-5-------8-------10-------5-----5-------5------3-----3--------5-----5-----|
G|-7b(9)--10b(12)--12b(14)--7b(9)-7b(9)---7b(9)--5b(7)-5b(7)----7b(9)-7b(9)-|
D|--------------------------------------------------------------------------|

 Am    C  D     Am         C    G    Am
Saída atrás da porta, logo ali nada mais
      C    D     Am       C
Traz sorte na imensa onda que vou flutuar


Bridge

e|----8-10-8----8--10--10b--|
B|-10--------10-------------|
G|--------------------------|
D|--------------------------|

 Dm    Am
Antes disso nada mais (nada mais)
 Dm   Am
Liberdade de mentira (de mentira)
 Dm   Am
Um relógio que só traz (que só traz)
 Dm   Am                    Am       C
Novos fatos de outros dias (outros dias)
 Am     C
Outros dias!

(RIFF - play it together with the chords)
 Am  C    D    Am
Ah   ah   ah   ah
 Am  C   G   Am
Ah   ah  ah

FINAL-RIFF

e|----8-10-8----8-10-10b-8-----8-10-8----8-10-10b-8-----|
B|-10--------10-------------10--------10-------------10-|
G|------------------------------------------------------|
D|------------------------------------------------------|

Chords the organ plays: Dm Am G Am
Tap to rate this tab
# A B C D E F G H I J K L M N O P Q R S T U V W X Y Z