Song name
# A B C D E F G H I J K L M N O P Q R S T U V W X Y Z

Os Mutantes - Baby 1971 tab

Artist: Os Mutantes
Song: Baby (1971)

This song is just a series of upper-string chords with a changing bass note - played 
The bass note spacing is approximate - you can throw in a few here or there if it feels necessary.

Intro:

  Dsus4/C                               Dsus4/F
e|---3-------3------|---3-------3------|-----3-----3------|---3-------3------|
B|---3-------3------|---3-------3------|----3------3------|---3-------3------|
G|---2-------2------|---2-------2------|---2-------2------|---2-------2------| x4
D|------------------|------------------|--3-----------3---|--------3-----3---|
A|---3----------3---|--------3-----3---|------------------|------------------|
E|------------------|------------------|------------------|------------------|

Verse:

  Dsus4/C                               Dsus4/F
e|---3-------3------|---3-------3------|---3-------3------|---3-------3------|
B|---3-------3------|---3-------3------|---3-------3------|---3-------3------|
G|---2-------2------|---2-------2------|---2-------2------|---2-------2------|
D|------------------|------------------|---3----------3---|--------3-----3---|
A|---3----------3---|--------3-----3---|------------------|------------------|
E|------------------|------------------|------------------|------------------|
   You know,                                  You must take a look at the

  Dsus4/C                               Dsus4/F
e|---3-------3------|---3-------3------|---3-------3------|---3-------3------|
B|---3-------3------|---3-------3------|---3-------3------|---3-------3------|
G|---2-------2------|---2-------2------|---2-------2------|---2-------2------|
D|------------------|------------------|---2----------3---|--------3-----3---|
A|---3----------3---|--------3-----3---|------------------|------------------|
E|------------------|------------------|------------------|------------------|
   new land                        The swimming pool land     The teeth of

  Dsus4/C                               Dsus4/F
e|---3-------3------|---3-------3------|---3-------3------|---3-------3------|
B|---3-------3------|---3-------3------|---3-------3------|---3-------3------|
G|---2-------2------|---2-------2------|---2-------2------|---2-------2------|
D|------------------|------------------|---2----------3---|--------3-----3---|
A|---3----------3---|--------3-----3---|------------------|------------------|
E|------------------|------------------|------------------|------------------|
   your friend                   The dirt in my hand                     You

  Dsus4/C                               Dsus4/F
e|---3-------3------|---3-------3------|---3-------3------|---3-------3------|
B|---3-------3------|---3-------3------|---3-------3------|---3-------3------|
G|---2-------2------|---2-------2------|---2-------2------|---2-------2------|
D|------------------|------------------|---2----------3---|--------3-----3---|
A|---3----------3---|--------3-----3---|------------------|------------------|
E|------------------|------------------|------------------|------------------|
    know                                            You must take a look at

  Dsus4/C                               Dsus4/F
e|---3-------3------|---3-------3------|---3-------3------|---3-------3------|
B|---3-------3------|---3-------3------|---3-------3------|---3-------3------|
G|---2-------2------|---2-------2------|---2-------2------|---2-------2------|
D|------------------|------------------|---2----------3---|--------3-----3---|
A|---3----------3---|--------3-----3---|------------------|------------------|
E|------------------|------------------|------------------|------------------|
    me

Chorus:

  Dsus4/C                               Am                 A aug
e|---3-------3------|---3-------3------|------------------|------------------|
B|---3-------3------|---3-------3------|---5-------5------|---6-------6------|
G|---2-------2------|---2-------2------|---5-------5------|---6-------6------|
D|------------------|------------------|------------------|------------------|
A|---3----3-----3---|--------3-----3---|------------------|------------------|
E|------------------|------------------|--------5-----5---|--------5-----5---|
   Baby,                                Baby

  Dm                                    G aug              G
e|------------------|------------------|------------------|------------------|
B|---6-------6------|---6-------6------|---4-------4------|---3-------3------|
G|---5-------5------|---5-------5------|---4-------4------|---4-------4------|
D|---7-------7------|---7-------7------|------------------|------------------|
A|--------5-----5---|--------5-----5---|------------------|------------------|
E|------------------|------------------|--------3-----3---|--------3-----3---|
                         I know that's      the way

  Dsus4/C                               Am                 A aug
e|---3-------3------|---3-------3------|------------------|------------------|
B|---3-------3------|---3-------3------|---5-------5------|---6-------6------|
G|---2-------2------|---2-------2------|---5-------5------|---6-------6------|
D|------------------|------------------|------------------|------------------|
A|--------3-----3---|--------3-----3---|------------------|------------------|
E|------------------|------------------|--------5-----5---|--------5-----5---|
   Baby,                                   Baby

  Dm7                                   G aug              G
e|------------------|------------------|------------------|------------------|
B|---6-------6------|---6-------6------|---4-------4------|---3-------3------|
G|---5-------5------|---5-------5------|---4-------4------|---4-------4------|
D|---7-------7------|---7-------7------|------------------|------------------|
A|--------5-----5---|--------5-----5---|------------------|------------------|
E|------------------|------------------|--------3-----3---|--------3-----3---|
                        I know that's           the way

Verse 2

You know, you must try the new ice cream flavor
Do me a favor
Look at me closer
Join us and go far
And hear the new sound of my bossa nova

Chorus 2

Baby, baby
It's been a long time
Baby, baby
It's been a long time

Verse 3

You know, it's time now to learn Portuguese
It's time now to learn what I know
And what I don't know
And what I don't know
And what I don't know

Verse 4

I know with me everything is fine
It's time now to make up your mind
We live in the biggest city of South America
Of South America
Of South America
Look here, read what I wrote on my shirt

Baby, baby
I love you
Baby, baby
I love you
Baby, baby
I love you
Baby, maybe
I love you
Baby, baby
I love you
You do

  Dsus4/C
e|-----------3------|
B|---------3--------|
G|-------2----------|
D|------------------|
A|----3-------------|
E|------------------|
Tap to rate this tab
# A B C D E F G H I J K L M N O P Q R S T U V W X Y Z