Song name
# A B C D E F G H I J K L M N O P Q R S T U V W X Y Z

Osbourne Ozzy - Diary Of A Madman tab

DIARY OF A MADMAN
Ozzy Osbourne

Album: Diary of a Madman
Tabbed by: n0e
Email: n0e@nerdshack.com

I worked very hard on making this tab accurate. However, this was ear transcribed (I
don't even have the TAB book) so if there is a mistake just leave a comment.

=================================================

Gtr. 1
  6-String Electric (Clean/Reverb)
  Half-Step Down (low to high: Eb Ab Db Gb Bb eb)

Gtr. 2
  6-String Electric (Overdrive)
  Half-Step Down (low to high: Eb Ab Db Gb Bb eb)

Gtr. 3 (only plays solo)
  6-String Electric (Overdrive/Reverb)
  Half-Step Down (low to high: Eb Ab Db Gb Bb eb)

=================================================

+++++
INTRO
+++++

This part is really easy. All you need to do is memorize the chord shapes and you got 
To see all the shapes and get tips on fingering positions, go all the way to the bottom of 
tab.

    Gtr. 1
     A7#11             A6#11             Adim7             Bm7b5
eb |---------0-------|---------0-------|---------5-------|---------5-------|
Bb |-------4---4-----|-------4---4-----|-------4---4-----|-------3---3-----|
Gb |-----6-------6---|-----6-------6---|-----5-------5---|-----4-------4---|
Db |---7-----------7-|---5-----------5-|---4-----------4-|---3-----------3-|
Ab |-0---------------|-0---------------|-0---------------|-0---------------|
Eb |-----------------|-----------------|-----------------|-----------------|

     Aadd9             Amadd9            Amadd9/G          Dmadd9/F
eb |---------0-------|---------0-------|---------0-------|---------0-------|
Bb |-------2---2-----|-------1---1-----|-----1-----1-----|-----3-----3-----|
Gb |-----4-------4---|-----4-------4---|---4---4-----4---|---2---2-----2---|
Db |---2-----------2-|---2-----------2-|---------------2-|---------------3-|
Ab |-0---------------|-0---------------|-----------------|-----------------|
Eb |-----------------|-----------------|-3---------------|-1---------------|

     Eadd9                      G5 G
eb |-----------------|-------0---------|
Bb |-----------------|-0---0-0--0--3---|
Gb |-----------1---1-|---1------4--4---|
Db |-----4---4---4---|----------0--0---|
Ab |---2---2---------|-----------------|
Eb |-0---------------|-----------------|

+++++++
PRELUDE
+++++++

The best way to position your hands for this is to bar your first finger across the 3 
4th strings and use your ring finger and pinkie to hit the 4s and 5s on the G string (respectively).

    Gtr. 1
     Am      Asus2 A5      Asus2 Am Asus2 A5   Am      Asus2 A5 Asus2 Am   Asus2
eb |-------------|-------------|-------------|-------------|-------------|-------------|
Bb |-------------|-------------|-------------|-------------|-------------|-------------|
Gb |-----5---4---|-----2---4---|-5---4---2---|-----5---4---|-2---4---5---|-4-----------|
Db |---2---2---2-|---2---2---2-|---2---2---2-|---2---2---2-|---2---2---2-|-------------|
Ab |-0-----------|-0-----------|-------------|-0-----------|-------------|-------------|
Eb |-------------|-------------|-------------|-------------|-------------|---------0---|

Now leave off the 2 on the D string this time through.

    Gtr. 1
     Am      Asus2 A5      Asus2 Am Asus2 A5   Am      Asus2 A5 Asus2 Am   Asus2
eb |-------------|-------------|-------------|-------------|-------------|-------------|
Bb |-------------|-------------|-------------|-------------|-------------|-------------|
Gb |-----5---4---|-----2---4---|-5---4---2---|-----5---4---|-2---4---5---|-4-----------|
Db |-------2---2-|---2---2---2-|---2---2---2-|---2---2---2-|---2---2---2-|-------------|
Ab |-0-----------|-0-----------|-------------|-0-----------|-------------|-------------|
Eb |-------------|-------------|-------------|-------------|-------------|-------------|
   |             |             |             |             |             |             |
   |Gtr. 2       |             |             |             |             |             |
eb |-------------|-------------|-------------|-------------|-------------|-------------|
Bb |-------------|-------------|-------------|-------------|-------------|-------------|
Gb |-------------|-------------|-------------|-------------|-------------|-------------|
Db |-------------|-------------|-------------|-------------|-------------|-------------|
Ab |-------------|-------------|-------------|-------------|-------------|-------------|
Eb |-------------|-------------|-------------|-------------|-------------|---------0---|

Same thing here, but with Gtr. 2 (distortion). The [4] is a pinch harmonic.

    Gtr. 2
     Am      Asus2 A5      Asus2 Am Asus2 A5   Am      Asus2 A5 Asus2 Am   Asus2
eb |-------------|-------------|-------------|-------------|-------------|-------------|
Bb |-------------|-------------|-------------|-------------|-------------|-------------|
Gb |-----5---4---|-----2---4---|-5---4---2---|-----5---4---|-2---4---5---|[4]----------|
Db |-------2---2-|---2---2---2-|---2---2---2-|---2---2---2-|---2---2---2-|-------------|
Ab |-0-----------|-0-----------|-------------|-0-----------|-------------|-------------|
Eb |-------------|-------------|-------------|-------------|-------------|---------0---|
           m   m   m m   m   m     m   m   m   m m   m   m     m   m   m

    Gtr. 2
     Am      Asus2 A5      Asus2 Am Asus2 A5   Am      Asus2 A5 Asus2 Am
eb |-------------|-------------|-------------|-------------|-------------|
Bb |-------------|-------------|-------------|-------------|-------------|
Gb |-----5---4---|-----2---4---|-5---4---2---|-----5---4---|-2---4---5---|
Db |-------2---2-|---2---2---2-|---2---2---2-|---2---2---2-|-------------|
Ab |-0-----------|-0-----------|-------------|-0-----------|-------------|
Eb |-------------|-------------|-------------|-------------|-------------|
           m   m   m m   m   m     m   m   m   m m   m   m

If you can't get this next part then you aren't worthy to play this song :P

    Gtr. 2
     E5            F5            F#5           C5    B5
eb |-------------|-------------|-------------|-------------|
Bb |-------------|-------------|-------------|-------------|
Gb |-------------|-------------|-------------|-------------|
Db |-2-----------|-3-----------|-4-----------|-10----9-----|
Ab |-2-----------|-3-----------|-4-----------|-10----9-----|
Eb |-0-----------|-1-----------|-2-----------|-8-----7-----|

+++++++
VERSE 1
+++++++

All of these chords were also used in the intro so you should already know them.

    Gtr. 1
     A6#11             Adim7   Bm7b5     A6#11             Adim7   Bm7b5
eb |-----0-----------|-----5-------5---|-----0-----------|-----5-------0---|
Bb |-------4-------4-|-4-------3-------|-------4-------4-|-4-------3-------|
Gb |---------6---6---|-5-------4-------|---------6---6---|-5-------4-------|
Db |-----------5-----|-4-------3-------|-----------5-----|-4-------3-------|
Ab |-0---------------|-----------------|-0---------------|-----------------|
Eb |-----------------|-----------------|-----------------|-----------------|
   |                 |                 |                 |                 |
   |Gtr. 2           |                 |                 |                 |
   | A5              |                 |                 |                 |
eb |-----------------|-----------------|-----------------|-----------------|
Bb |-----------------|-----------------|-----------------|-----------------|
Gb |-----------------|-----------------|-----------------|-----------------|
Db |-7---------------|-----------------|-----------------|-----------------|
Ab |-7---------------|-----------------|-----------------|-----------------|
Eb |-5---------------|-----------------|-----------------|-----------------|

    "Screaming at the window"           "Watch me die another day"
    Gtr. 1
     A6#11             Adim7   Bm7b5     A6#11             Adim7   Bm7b5
eb |-----0-----------|-----5-------5---|-----0-----------|-----5-------0---|
Bb |-------4-------4-|-4-------3-------|-------4-------4-|-4-------3-------|
Gb |---------6---6---|-5-------4-------|---------6---6---|-5-------4-------|
Db |-----------5-----|-4-------3-------|-----------5-----|-4-------3-------|
Ab |-0---------------|-----------------|-0---------------|-----------------|
Eb |-----------------|-----------------|-----------------|-----------------|

    "Hopeless situation"                "Endless price I have to pay"
     A6#11             Adim7   Bm7b5     A6#11             Adim7   Bm7b5
eb |-----0-----------|-----5-------5---|-----0-----------|-----5-------0---|
Bb |-------4-------4-|-4-------3-------|-------4-------4-|-4-------3-------|
Gb |---------6---6---|-5-------4-------|---------6---6---|-5-------4-------|
Db |-----------5-----|-4-------3-------|-----------5-----|-4-------3-------|
Ab |-0---------------|-----------------|-0---------------|-----------------|
Eb |-----------------|-----------------|-----------------|-----------------|

++++++++
CHORUS 1
++++++++

Just finger the chords and pick the right strings. This is a shorter version of the riff
you will see for the rest of the song.

    "Sanity now is beyond me. There's no choice."
    Gtr. 1
     Am    G       F     G       F     G
eb |-------------|-------------|-------------|
Bb |---1-0---0---|-1-----3-----|---1-----0-1-|
Gb |-----------0-|-2-2-----4---|-----2-------|
Db |-2-----0-----|-3---3-----5-|-------0-----|
Ab |-0-----2-----|-3/////5-----|-3-----2-----|
Eb |-------3-----|-1/////3-----|-1-----3-----|
   |             |             |             |
   |Gtr. 2       |             |             |
eb |-------------|-------------|-------------|
Bb |-------------|-------------|-------------|
Gb |-2-----------|-2-----------|-2-----------|
Db |-2-----0-----|-3-----0-----|-3-----0-----|
Ab |-0-----2-----|-3-----2-----|-3-----2-----|
Eb |-------3-----|-1-----3-----|-1-----3-----|

+++++++
VERSE 2
+++++++

    Gtr. 1
     A6#11             Adim7   Bm7b5     A6#11             Adim7   Bm7b5
eb |-----0-----------|-----5-------5---|-----0-----------|-----5-------0---|
Bb |-------4-------4-|-4-------3-------|-------4-------4-|-4-------3-------|
Gb |---------6---6---|-5-------4-------|---------6---6---|-5-------4-------|
Db |-----------5-----|-4-------3-------|-----------5-----|-4-------3-------|
Ab |-0---------------|-----------------|-0---------------|-----------------|
Eb |-----------------|-----------------|-----------------|-----------------|
   |                 |                 |                 |                 |
   |Gtr. 2           |                 |                 |                 |
   | Am              |                 |                 |                 |
eb |-----------------|-----------------|-----------------|-----------------|
Bb |-1---------------|-----------------|-----------------|-----------------|
Gb |-2---------------|-----------------|-----------------|-----------------|
Db |-2---------------|-----------------|-----------------|-----------------|
Ab |-0---------------|-----------------|-----------------|-----------------|
Eb |-----------------|-----------------|-----------------|-----------------|

    "Diary of a madman"                 "Walk the line again today"
     A6#11             Adim7   Bm7b5     A6#11             Adim7   Bm7b5
eb |-----0-----------|-----5-------5---|-----0-----------|-----5-------0---|
Bb |-------4-------4-|-4-------3-------|-------4-------4-|-4-------3-------|
Gb |---------6---6---|-5-------4-------|---------6---6---|-5-------4-------|
Db |-----------5-----|-4-------3-------|-----------5-----|-4-------3-------|
Ab |-0---------------|-----------------|-0---------------|-----------------|
Eb |-----------------|-----------------|-----------------|-----------------|

    "Entries of confusion"              "Dear Diary, I'm here to stay"
     A6#11             Adim7   Bm7b5     A6#11             Adim7   Bm7b5
eb |-----0-----------|-----5-------5---|-----0-----------|-----5-------0---|
Bb |-------4-------4-|-4-------3-------|-------4-------4-|-4-------3-------|
Gb |---------6---6---|-5-------4-------|---------6---6---|-5-------4-------|
Db |-----------5-----|-4-------3-------|-----------5-----|-4-------3-------|
Ab |-0---------------|-----------------|-0---------------|-----------------|
Eb |-----------------|-----------------|-----------------|-----------------|

++++++++
CHORUS 2
++++++++

This is almost the same as the first chorus but it's longer.

    "Manic depression befriends me. Hear his voice."
    Gtr. 1
     Am    G       F     G       F     G       Am    F   G
eb |-------------|-------------|-------------|-------------|
Bb |---1-0---0---|-1-----3-----|---1-----0-1-|---1-0-------|
Gb |-----------0-|-2-2-----4---|-----2-------|-------5---7-|
Db |-2-----0-----|-3---3-----5-|-------0-----|-2-----3---5-|
Ab |-0-----2-----|-3/////5-----|-3-----2-----|-0-----3---5-|
Eb |-------3-----|-1/////3-----|-1-----3-----|-------------|
   |             |             |             |             |
   |Gtr. 2       |             |             |             |
   | A5    G     | F     G     | F     G     | A5    F5  G5|
eb |-------------|-------------|-------------|-------------|
Bb |-------------|-------------|-------------|-------------|
Gb |-2-----------|-2-----------|-2-----------|-2-----------|
Db |-2-----0-----|-3-----0-----|-3-----0-----|-2-----3---0-|
Ab |-0-----2-----|-3-----2-----|-3-----2-----|-0-----3---2-|
Eb |-------3-----|-1-----3-----|-1-----3-----|-------1---3-|

    "Sanity now is beyond me. There's no choice."
    Gtr. 1
     Am    G       F     G       F     G
eb |-------------|-------------|-------------|
Bb |---1-0---0---|---1-----3---|---1-----0-1-|
Gb |-----------0-|-----2-----4-|-----2-------|
Db |-2-----0-----|-------------|-------0-----|
Ab |-0-----2-----|-3-----5-----|-3-----2-----|
Eb |-------3-----|-1-----3-----|-1-----3-----|
   |             |             |             |
   |Gtr. 2       |             |             |
eb |-------------|-------------|-------------|
Bb |-------------|-------------|-------------|
Gb |-2-----------|-2-----------|-2-----------|
Db |-2-----0-----|-3-----0-----|-3-----0-----|
Ab |-0-----2-----|-3-----2-----|-3-----2-----|
Eb |-------3-----|-1-----3-----|-1-----3-----|

++++++
BRIDGE
++++++

This is one of my favorite parts of the song :) I starts off just like the prelude but 
it drops down to E minor and does some cool fills.

    Gtr. 2
     Am      Asus2 A5      Asus2 Am Asus2 A5   Am      Asus2 A5 Asus2 Am   Asus2
eb |-------------|-------------|-------------|-------------|-------------|-------------|
Bb |-------------|-------------|-------------|-------------|-------------|-------------|
Gb |-----5---4---|-----2---4---|-5---4---2---|-----5---4---|-2---4---5---|[4]----------|
Db |-------2---2-|---2---2---2-|---2---2---2-|---2---2---2-|---2---2---2-|-------------|
Ab |-0-----------|-0-----------|-------------|-0-----------|-------------|-------------|
Eb |-------------|-------------|-------------|-------------|-------------|---------0---|
           m   m   m m   m   m     m   m   m   m m   m   m     m   m   m

    Gtr. 2
     Am      Asus2 A5      Asus2 Am Asus2 A5   Am      Asus2 A5 Asus2 Am
eb |-------------|-------------|-------------|-------------|-------------|
Bb |-------------|-------------|-------------|-------------|-------------|
Gb |-----5---4---|-----2---4---|-5---4---2---|-----5---4---|-2---4---5---|
Db |-------2---2-|---2---2---2-|---2---2---2-|---2---2---2-|-------------|
Ab |-0-----------|-0-----------|-------------|-0-----------|-------------|
Eb |-------------|-------------|-------------|-------------|-------------|
           m   m   m m   m   m     m   m   m   m m   m   m     m   m   m

Here is where it drops to E minor. The fill might sound backwards to you if you play 
with the CD (it sure sounded wrong to me at first), but if you slow it down you can tell that 
it's right.

    Gtr. 2
     C             F#m           Em      Esus2 E5      Esus2 Em    Esus2
eb |-------------|-------------|-------------|-------------|-------------|
Bb |-------------|-------------|-------------|-------------|---3-----3---|
Gb |-------------|-------------|-------------|-------------|-----0-----0-|
Db |-------------|-------------|-----5---4---|-----2---4---|/5-----4-----|
Ab |-3---3-3h5p3-|-------------|---2---2---2-|---2---2-----|-------------|
Eb |-------------|-2---2-2h3p2-|-0-----------|-0-----------|-------------|
                                 m m   m   m   m m   m

    Gtr. 2
     Em      Esus2     E5  Esus2 Gm6   G6sus2
eb |-------------|-------------|-------------|
Bb |-------------|-------------|-------------|
Gb |-------------|-------------|-----0-----0-|
Db |-----5---4---|-----2---4---|---2-----2---|
Ab |---2---2---2-|---2---2-----|-1-----0-----|
Eb |-0-----------|-0-----------|-------------|
     m m   m   m   m m   m

Almost the same as the first fill but hits an A on the high E string at the end.

    Gtr. 2
     Em      Esus2     E5  Esus2 Em    Esus2add11
eb |-------------|-------------|---------5---|
Bb |-------------|-------------|---3-------3-|
Gb |-------------|-------------|-----0-------|
Db |-----5---4---|-----2---4---|/5-----4-----|
Ab |---2---2---2-|---2---2-----|-------------|
Eb |-0-----------|-0-----------|-------------|
     m m   m   m   m m   m

    Gtr. 2
     Em      Esus2     E5  Esus2 Gm6   G6sus2
eb |-------------|-------------|-------------|
Bb |-------------|-------------|-------------|
Gb |-------------|-------------|-----0-----0-|
Db |-----5---4---|-----2---4---|---2-----2---|
Ab |---2---2---2-|---2---2-----|-1-----0-----|
Eb |-0-----------|-0-----------|-------------|
     m m   m   m   m m   m

+++++++++++++
PRE-INTERLUDE
+++++++++++++

This part is kind of confusing to learn. I'm almost positive that this part is all right
though.

    Gtr. 1
     Emadd9                                                Dadd9
eb |-------------0---|-------------0---|-------------0---|-------------0---|
Bb |-----8---8-----8-|-----8---8-----8-|-----8---8-----8-|-----8---8-----8-|
Gb |-------11--11----|-------11--11----|-------11--11----|---11--11--11----|
Db |---9-------------|---9-------------|---9-------------|-10--------------|
Ab |-----------------|-----------------|-----------------|-----------------|
Eb |-0---------------|-0---------------|-0---------------|-----------------|
   |                 |                 |                 |                 |
   |Gtr. 2           |                 |                 |                 |
eb |-----------------|-----------------|-----------------|-----------------|
Bb |-----------------|-----------------|-----------------|-----------------|
Gb |-----------------|-----------------|-----------------|-----------------|
Db |-----------------|-----------------|-----------------|-----------------|
Ab |-----------------|-----------------|-----------------|-----------------|
Eb |-0---------------|-----------------|-----------------|-----------------|

    Gtr. 1
     Gmaj6             Esus2             Emadd9            Dadd9
eb |-------------0---|---------0-------|---------0-------|---------0-------|
Bb |-----8---8-----8-|-7---7-----7---7-|-8-----8---8---8-|-----8-----8---8-|
Gb |---7---7---7-----|---9---9-----9---|-----11------11--|---11--11----11--|
Db |-9---------------|-----------------|---9-------------|-10--------------|
Ab |-----------------|-----------------|-----------------|-----------------|
Eb |-----------------|-----------------|-----------------|-----------------|

     Gmaj6             Esus2             Emadd9            Dadd9
eb |-------------0---|---------0-------|---------0-------|---------0-------|
Bb |-----8---8-----8-|-7---7-----7---7-|-8-----8---8---8-|-----8-----8---8-|
Gb |---7---7---7-----|---9---9-----9---|-----11------11--|---11--11----11--|
Db |-9---------------|-----------------|---9-------------|-10--------------|
Ab |-----------------|-----------------|-----------------|-----------------|
Eb |-----------------|-----------------|-----------------|-----------------|

+++++++
VERSE 3
+++++++

This is the same idea but different patterns.

    "A sickened mind and spirit"        "The mirror tells me lies"
     Emadd9            D                 Emadd9            D        G  D  C D
eb |---------0-------|---------0-------|---------0-------|--------------------|
Bb |-8-----8---8---8-|-10----10--10--10|-8-----8---8---8-|-10----10-12-10-8-7-|
Gb |-----11------11--|-----11------11--|-----11------11--|-----11---12-11-9-7-|
Db |---9-------------|---12------------|---9-------------|---12---------------|
Ab |-----------------|-----------------|-----------------|--------------------|
Eb |-----------------|-----------------|-----------------|--------------------|

    "Could I mistake myself for someone" "Who lives behind my eyes?"
     Emadd9            D                 Emadd9            D
eb |---------0-------|---------0-------|---------0-------|---------0-------|
Bb |-8-----8---8---8-|-10----10--10-8-7|-8-----8---8---8-|-10----10--10-8-7|
Gb |-----11------11--|-----11----------|-----11------11--|-----11----------|
Db |---9-------------|---12------------|---9-------------|---12------------|
Ab |-----------------|-----------------|-----------------|-----------------|
Eb |-----------------|-----------------|-----------------|-----------------|

    "Will he escape my soul"               "Or will he live in me?"
     Emadd9            D        G  D  C D   Emadd9            D
eb |---------0-------|--------------------|---------0-------|---------0-------|
Bb |-8-----8---8---8-|-10----10-12-10-8-7-|-8-----8---8---8-|-10----10--10-8-7|
Gb |-----11------11--|-----11---12-11-9-7-|-----11------11--|-----11----------|
Db |---9-------------|---12---------------|---9-------------|---12------------|
Ab |-----------------|--------------------|-----------------|-----------------|
Eb |-----------------|--------------------|-----------------|-----------------|

    "Is he trying to get out"            "Or trying to enter me?"
     Emadd9            D           Dsus4 Emadd9            D        G  D  C D
eb |---------0-------|---------0----0--|---------0-------|--------------------|
Bb |-8-----8---8---8-|-10----10--10-9-7|-8-----8---8---8-|-10----10-12-10-8-7-|
Gb |-----11------11--|-----11----------|-----11------11--|-----11---12-11-9-7-|
Db |---9-------------|---12------------|---9-------------|---12---------------|
Ab |-----------------|-----------------|-----------------|--------------------|
Eb |-----------------|-----------------|-----------------|--------------------|

     Emadd9            D                 Emadd9            D
eb |---------0-------|---------0-------|---------0-------|---------0-------|
Bb |-8-----8---8---8-|-10----10--10-8-7|-8-----8---8---8-|-10----10--10-8-7|
Gb |-----11------11--|-----11----------|-----11------11--|-----11----------|
Db |---9-------------|---12------------|---9-------------|---12------------|
Ab |-----------------|-----------------|-----------------|-----------------|
Eb |-----------------|-----------------|-----------------|-----------------|

This variation (second measure) is different that that one you did above. It sounds kind of
weird but it IS right.

     Emadd9            D                   Emadd9            D
eb |---------0-------|-------------------|---------0-------|---------0-------|
Bb |-8-----8---8---8-|-10----10-12-10-8-7|-8-----8---8---8-|-10----10--10-8-7|
Gb |-----11------11--|-----11---11-12-117|-9---11------11--|-----11----------|
Db |---9-------------|---12--------------|---9-------------|---12------------|
Ab |-----------------|-------------------|-----------------|-----------------|
Eb |-----------------|-------------------|-----------------|-----------------|

     Emadd9            D                    Emadd9            D
eb |---------0-------|---------0----------|---------0-------|---------0-------|
Bb |-8-----8---8---8-|-10----10--10-12-10-|-8-----8---8---8-|-10----10--10-8-7|
Gb |-----11------11--|-----11-------12-11-|-9---11------11--|-----11----------|
Db |---9-------------|---12---------------|---9-------------|---12------------|
Ab |-----------------|--------------------|-----------------|-----------------|
Eb |-----------------|--------------------|-----------------|-----------------|

     C             F#m
eb |-------------|-------------|
Bb |-------------|-------------|
Gb |-------------|-------------|
Db |-------------|-------------|
Ab |-3-3-3h5p3p0-|-------------|
Eb |-------------|-2-2-2h3p2p0-|

+++++++++
INTERLUDE
+++++++++

This part rocks and it's not too hard either.

     E         D E         C B C         F#m               C       D
eb |-----------------|-----------------|-----------5-----|-----------------|
Bb |-----------------|-----5\4/5-------|-----------5-----|-----------------|
Gb |---------9\7/9---|-----x-----------|-----------------|-----------------|
Db |---------9\7/9---|-----x-----------|-----------------|---------5p4p2p0-|
Ab |---------7\5/7---|-----3\2/3-------|-----------------|-3p2h3h5---------|
Eb |-0---0-----------|-----------------|-0h2---2-2---2---|-----------------|
     m   m

     E         D E         C B C         F#m               C       D
eb |-----------------|-----------------|-----------5-----|-----------------|
Bb |-----------------|-----5\4/5-------|-----------5-----|-----------------|
Gb |---------9\7/9---|-----x-----------|-----------------|-----------------|
Db |---------9\7/9---|-----x-----------|-----------------|---------5p4p2p0-|
Ab |---------7\5/7---|-----3\2/3-------|-----------------|-3p2h3h5---------|
Eb |-0---0-0---------|-0-0-------------|-0h2---2-2---2---|-----------------|
     m   m m           m m

     E         D E         C B C         F#m               C       D
eb |-----------------|-----------------|-----------5-----|-----------------|
Bb |-----------------|-----5\4/5-------|-----------5-----|-----------------|
Gb |---------9\7/9---|-----x-----------|-----------------|-----------------|
Db |---------9\7/9---|-----x-----------|-----------------|---------5p4p2p0-|
Ab |---------7\5/7---|-----3\2/3-------|-----------------|-3p2h3h5---------|
Eb |-0---0-0---------|-0-0-------------|-0h2---2-2---2---|-----------------|
     m   m m           m m

Here's the solo. The rhythm for the solo is the same as verse 1 and 2 but I didn't put it
in because it was hard to fit it the the other notes. This is 100% correct I promise ;)

    Gtr. 3
eb |---------5---------------------------------------------------8---|
Bb |(10)r8-----8-6p5-6p5\4-5p4---------------------4h5-6p5p4h5/8-----|
Gb |---------------------------5-----------------------------------7-|
Db |-----------------------------7\6-3h6p3---------------------------|
Ab |---------------------------------------6/7-----------------------|
Eb |-------------------------------------------4---------------------|

eb |---------------12-13-16----------------------------15----20-19-16-|
Bb |-16-17/18\17------------16-13-12-------------16-17----17----------|
Gb |---------------------------------14-13-14/17----------------------|
Db |------------------------------------------------------------------|
Ab |------------------------------------------------------------------|
Eb |------------------------------------------------------------------|

eb |----------------------------------------------------------------17-------|
Bb |----------------------------------------------17----17-20-17-20----20-17-|
Gb |----------------------------17----17-19-17-19----19----------------------|
Db |----------17----17-19-17-19----19----------------------------------------|
Ab |-19-17-19----19----------------------------------------------------------|
Eb |-------------------------------------------------------------------------|

eb |-20b22-20b22-20b22-20b22-20b22-20b22r20~~~~-|
Bb |--------------------------------------------|
Gb |--------------------------------------------|
Db |--------------------------------------------|
Ab |--------------------------------------------|
Eb |--------------------------------------------|

+++++++
VERSE 4
+++++++

    "Voices in the darkness"            "Scream away my mental health"
    Gtr. 1
     A6#11             Adim7   Bm7b5     A6#11             Adim7   Bm7b5
eb |-----0-----------|-----5-------5---|-----0-----------|-----5-------0---|
Bb |-------4-------4-|-4-------3-------|-------4-------4-|-4-------3-------|
Gb |---------6---6---|-5-------4-------|---------6---6---|-5-------4-------|
Db |-----------5-----|-4-------3-------|-----------5-----|-4-------3-------|
Ab |-0---------------|-----------------|-0---------------|-----------------|
Eb |-----------------|-----------------|-----------------|-----------------|

    "Can I ask a question"              "To help me save me from myself?"
     A6#11             Adim7   Bm7b5     A6#11             Adim7   Bm7b5
eb |-----0-----------|-----5-------5---|-----0-----------|-----5-------0---|
Bb |-------4-------4-|-4-------3-------|-------4-------4-|-4-------3-------|
Gb |---------6---6---|-5-------4-------|---------6---6---|-5-------4-------|
Db |-----------5-----|-4-------3-------|-----------5-----|-4-------3-------|
Ab |-0---------------|-----------------|-0---------------|-----------------|
Eb |-----------------|-----------------|-----------------|-----------------|

++++++++
CHORUS 3
++++++++

    "Enemies fill up the pages. Are they me?"
    Gtr. 1
     Am    G       F     G       F     G       Am    F   G
eb |-------------|-------------|-------------|-------------|
Bb |---1-0---0---|-1-----3-----|---1-----0-1-|---1-0-------|
Gb |-----------0-|-2-2-----4---|-----2-------|-------5---7-|
Db |-2-----0-----|-3---3-----5-|-------0-----|-2-----3---5-|
Ab |-0-----2-----|-3/////5-----|-3-----2-----|-0-----3---5-|
Eb |-------3-----|-1/////3-----|-1-----3-----|-------------|
   |             |             |             |             |
   |Gtr. 2       |             |             |             |
   | A5    G     | F     G     | F     G     | A5    F5  G5|
eb |-------------|-------------|-------------|-------------|
Bb |-------------|-------------|-------------|-------------|
Gb |-2-----------|-2-----------|-2-----------|-2-----------|
Db |-2-----0-----|-3-----0-----|-3-----0-----|-2-----3---0-|
Ab |-0-----2-----|-3-----2-----|-3-----2-----|-0-----3---2-|
Eb |-------3-----|-1-----3-----|-1-----3-----|-------1---3-|

   "Monday to Sunday in stages. Set me free."
    Gtr. 1
     Am    G       F     G       F     G
eb |-------------|-------------|-------------|
Bb |---1-0---0---|---1-----3---|---1-----0-1-|
Gb |-----------0-|-----2-----4-|-----2-------|
Db |-2-----0-----|-------------|-------0-----|
Ab |-0-----2-----|-3-----5-----|-3-----2-----|
Eb |-------3-----|-1-----3-----|-1-----3-----|
   |             |             |             |
   |Gtr. 2       |             |             |
eb |-------------|-------------|-------------|
Bb |-------------|-------------|-------------|
Gb |-2-----------|-2-----------|-2-----------|
Db |-2-----0-----|-3-----0-----|-3-----0-----|
Ab |-0-----2-----|-3-----2-----|-3-----2-----|
Eb |-------3-----|-1-----3-----|-1-----3-----|

+++++
OUTRO
+++++

This is played 7 times.

    Gtr. 2
     Am      Asus2 A5      Asus2 Am Asus2 A5   Am      Asus2 A5 Asus2 Am   Asus2
eb |-------------|-------------|-------------|-------------|-------------|-------------|
Bb |-------------|-------------|-------------|-------------|-------------|-------------|
Gb |-----5---4---|-----2---4---|-5---4---2---|-----5---4---|-2---4---5---|[4]----------|
Db |-------2---2-|---2---2---2-|---2---2---2-|---2---2---2-|---2---2---2-|-------------|
Ab |-0-----------|-0-----------|-------------|-0-----------|-------------|-------------|
Eb |-------------|-------------|-------------|-------------|-------------|---------0---|
           m   m   m m   m   m     m   m   m   m m   m   m     m   m   m

After that has been repeated 7 times, it ends with this.

    Gtr. 2
     Am      Asus2 A5      Asus2 Am Asus2 A5   Am      Asus2 A5 Asus2 Am   Asus2
eb |-------------|-------------|-------------|-------------|-------------|-------------|
Bb |-------------|-------------|-------------|-------------|-------------|-------------|
Gb |-----5---4---|-----2---4---|-5---4---2---|-----5---4---|-2---4---5---|-4-------2---|
Db |-------2---2-|---2---2---2-|---2---2---2-|---2---2---2-|---2---2---2-|-----2-------|
Ab |-0-----------|-0-----------|-------------|-0-----------|-------------|-------------|
Eb |-------------|-------------|-------------|-------------|-------------|-------------|
           m   m   m m   m   m     m   m   m   m m   m   m     m   m   m

========

INTRO CHORDS

I - index finger
M - middle finger
R - ring finger
P - pinkie

       A7#11             A6#11             Adim7             Bm7b5
  :-X-o-------o-:   :-X-o-------o-:   :-X-o---------:   :-X-o---------:
 3: | | | | | | :  3: | | | | | | :  3: | | | | | | :  3: | | I | M | :
  :-------------:   :-------------:   :-------------:   :-------------:
  : | | | | I | :   : | | | | I | :   : | | I | M | :   : | | | R | | :
  :-------------:   :-------------:   :-------------:   :-------------:
 5: | | | | | | :  5: | | M | | | :  5: | | | R | P :  5: | | | | | P :
  :-------------:   :-------------:   :-------------:   :-------------:
  : | | | R | | :   : | | | R | | :   : | | | | | | :   : | | | | | | :
  :-------------:   :-------------:   :-------------:   :-------------:
 7: | | P | | | :  7: | | | | | | :  7: | | | | | | :  7: | | | | | | :
  :-------------:   :-------------:   :-------------:   :-------------:

       Aadd9            Amadd9            Amadd9/G          Dmadd9/F
  \-X-o-------o-/   \-X-o-------o-/   \---o-------o-/   :---o-------o-:
 1: | | | | | | :  1: | | | | I | :  1: | | | | I | :  1: I | | | | | :
  :-------------:   :-------------:   :-------------:   :-------------:
  : | | I | M | :   : | | M | | | :   : | | M | | | :   : | | | M | | :
  :-------------:   :-------------:   :-------------:   :-------------:
 3: | | | | | | :  3: | | | | | | :  3: R | | | | | :  3: | | R | P | :
  :-------------:   :-------------:   :-------------:   :-------------:
  : | | | P | | :   : | | | P | | :   : | | | P | | :   : | | | | | | :
  :-------------:   :-------------:   :-------------:   :-------------:
 5: | | | | | | :  5: | | | | | | :  5: | | | | | | :  5: | | | | | | :
  :-------------:   :-------------:   :-------------:   :-------------:

       Eadd9              G5                  G
  \-o-------o-o-/   \-X-X-o---o-X-/   \-X-X-o-----o-/
 1: | | | I | | :  1: | | | | | | :  1: | | | | | | :
  :-------------:   :-------------:   :-------------:
  : | M | | | | :   : | | | | | | :   : | | | | | | :
  :-------------:   :-------------:   :-------------:
 3: | | | | | | :  3: | | | | | | :  3: | | | | I | :
  :-------------:   :-------------:   :-------------:
  : | | P | | | :   : | | | R | | :   : | | | R | | :
  :-------------:   :-------------:   :-------------:
 5: | | | | | | :  5: | | | | | | :  5: | | | | | | :
  :-------------:   :-------------:   :-------------:
Tap to rate this tab
# A B C D E F G H I J K L M N O P Q R S T U V W X Y Z