Guitaretab - guitar tabs
Song name
# A B C D E F G H I J K L M N O P Q R S T U V W X Y Z

Osbourne Ozzy - Goodbye To Romance tab

Goodbye To Romance Solo by Ozzy Osbourne

p  =    Pull Off
h  =    Hammer On
b  =    Bend
/  =    Slide
~  =    Vibrato

This is the tab for the Goodbye To Romance solo played by the great Randy Rhoads.

e[--------------]-----------15p14-12~~--]
B[--------------]-----------------------]
G[---------7h9--]--7/11h14--------------]
D[----7h9-------]-----------------------]
A[--------------]-----------------------]
E[--------------]-----------------------]

e[-------14h15p14------14-----------------14-----------14--15-]
B[----15-----------17------17p15p14--17b-----17~~-------------]
G[-16---------------------------------------------------------]
D[------------------------------------------------------------]
A[------------------------------------------------------------]
E[------------------------------------------------------------]

e[-17p15p14----14-------------------------------14-15p14h15p14-17p15h17p15--
B[----------17----17p15p14h15----------14h15h17-----------------------------
G[----------------------------16p14h16--------------------------------------
D[--------------------------------------------------------------------------
A[--------------------------------------------------------------------------
E[--------------------------------------------------------------------------
[ Tab from: http://www.guitaretab.com/o/osbourne-ozzy/14023.html ]
e[-19p17h19p17-21p19h21p19-]-21b-21p19-21p19----19-21b-]
B[-------------------------]-----------------22--------]
G[-------------------------]---------------------------]
D[-------------------------]---------------------------]
A[-------------------------]---------------------------]
E[-------------------------]---------------------------]

e[-------7----------------------7--9b-]
B[----7-----10-7-8-7----7-------------]
G[-9b----------------9b---9~~---------]
D[------------------------------------]
A[------------------------------------]
E[------------------------------------]

e[--9p7----7---------------------------------]
B[------10---10-8p7---7---------------7~~~~--]
G[------------------9---9--7--6--7--9--------]
D[-------------------------------------------]
A[-------------------------------------------]
E[-------------------------------------------]

e[-9-10-7-9----7-----------------------]
B[----------10---8-10-7-8---7----------]
G[------------------------9---7-9-6-7--]
D[-------------------------------------]
A[-------------------------------------]
E[-------------------------------------]

e[----------------------------------14-15-17p15p14----]---------]
B[-------------------------15h17-19----------------17-]---19~~~-]
G[-9~~~---11~~~---14h16-18----------------------------]---19~~~-]
D[----------------------------------------------------]---------]
A[----------------------------------------------------]---------]
E[----------------------------------------------------]---------]
Related for Goodbye To Romance tab
Goodbye To Romance chords by Osbourne Ozzy