Song name
# A B C D E F G H I J K L M N O P Q R S T U V W X Y Z

Osbourne Ozzy - Waiting For Darkness tab

Waiting for Darkness (from Bark at the Moon)
 	      ============================================


Intro/Chorus2:
<+++++++++++++++++++++++++++++++++++++++ X 3
|-----------------------------------------|-|---------------------|
|-----------------------------------------|-|---------------------|
|-----------------------------------------|X|---------------------|
|----------------7-7--5-5-------4-4-------|X|-5555-5557-4444-4445-|
|-7-7--2-2--5-5------------7-7-------5-5--|-|---------------------|
|-----------------------------------------|-|---------------------|

Verse:
|---------------|
|-----7/9---10--|
|-9---7/9----9--|
|-9---7/9----7--|
|-7---5/7----7--|
|-7-------------|

Chorus1/Outro:
|-----------------------------------------|-----------------------|
|-----------------------------------------|-----------------------|
|-----------------------------------------|-----------------------|
|-9-9--12--7-7--12---5----5----5----5-----|--------------5p4------|
|-7-7---9--5-5---9---3-00-3-00-3-00-3-00--|-3---3---3-5-------5---|
|-----------------------------------------|---5---5---------------|

Bridge:
|--------------------------------------------------------------------------|
|--------------8-7-------8-8-7--------------8-8-8--------------------------|
|--5-7-9-7--5------7-5---------7--5-7-9-87--------7--10--------------------|
|--------------------------------------------------------------------------|
|---------------------------------------------------------2-4-5------------|
|---------------------------------------------------------------2-4-5p4-2--|

|-------------------------|---------------------------------------------|
|-------------------------|------------------------5-7-5----------------|
|-------------------------|------------------------------7-6-4----------|
|-4-3-------4-3-------2---|-4-3-------4-3-3-4-6-7--------------7ph------|
|-2-1-------2-1-------1-6-|-2-1-------2-1-1-2-4-5-----------------------|
|-----2-2-2-----2-2-2---4-|-----2-2-2-----------------------------------|

|-------------------------------------------|
|-------------------------------------------|
|-------------------------------------------|
|-4-3-------7-6-------9-8--------11-13-14---|
|-2-1-------5-4-------7-6--------9--11-12---|
|-----2-2-2-----5-5-5-----7-7-7-------------|

Solo:
|-----------------------------3------------------|-------------------------|
|--5b6--5--3--3b4--3--5b6--5----3-44---6-----8---|-------6-----6-----------|
|----------------------------------------5-7-----|---5h7---5h7-------------|
|------------------------------------------------|Play this short riff-----|
|------------------------------------------------|until the "interlude"----|
|------------------------------------------------|is over..Increasing Speed|
Tap to rate this tab
# A B C D E F G H I J K L M N O P Q R S T U V W X Y Z