Song name
# A B C D E F G H I J K L M N O P Q R S T U V W X Y Z

Osbourne Ozzy - Fire In The Sky tab

----------------------------------------------------------------------------
			     Fire In The Sky - Ozzy Osbourne
----------------------------------------------------------------------------
Tabbed by: Iheartnirvana
Email:

Tuning:down 1/2 step
Intro and Chorus riff
e|--------------------------------------------------------------------------|
B|--------------------------------------------------------------------------|
G|-------14-13--------------------14-13------------------12-------12--------|
D|-12-14-14-13-14-12-12-^^^-12-14-14-13-14-\-12-/-14-----12-------12--------|
A|-12-14-12-11-14-12-12-^^^-12-14-12-11-14-\-12-/-14-----10-------10--------|
E|-10-12-------12-10-10-^^^-10-12-------12-\-10-/-12-0-0----0-0-0----0-0-0--|
                     repeat
Verse riff: cool 12 string/sitar effect
e|---------0------0---------------------------------------------------------|
B|-------1------0---0-------------------------------------------------------|
G|-----2--------------2------this is how I play it correct me if its wrong--|
D|---2------------------2---------------------------------------------------|
A|-0----------------------0-------------------------------------------------|
E|--------------------------------------------------------------------------|
Pre-Chorus:
           +         +              +        +       +             +
e|--------------------------------------------------------------------------|
B|--------------------------------------------------------------------------|
G|---------2---------2-------2-2-1-----------2-------2-------2-2-1---2-4----|
D|--3--------3---------3------------2--3-------3-------3-----------2-2-4----|
A|----4-5------4-5-------4-5-------------4-5-----4-5-----4-5---------0-2----|
E|--------------------------------------------------------------------------|
This is the second guitar its what I play because I can't do the solo
e|--------------------------------------------------------------------------|
B|--------------------------------------------------------------------------|
G|-2-2-4-5-----4-5----------------------------------------------------------|
D|-2-2-4-5-2-2-4-5---------this is pretty much it for the whole solo--------|
A|-0-0-2-3-2-2-2-3----------------------------------------------------------|
E|---------0-0--------------------------------------------------------------|
For the ending just repeat the intro and verse riff 'til it fades

Listen to the whole song and see if you can tab it better (I guarantee you can)

| ^  bend
| /  slide up
| \  slide down
| h  hammer-on
| p  pull-off
| ~  vibrato
| +  harmonic
| x  Mute note
============================================================================
Tap to rate this tab
 
# A B C D E F G H I J K L M N O P Q R S T U V W X Y Z