Song name
# A B C D E F G H I J K L M N O P Q R S T U V W X Y Z

Osbourne Ozzy - Paranoid tab

PARANOID" LIVE WITH RANDY RHOADS
OZZY OSBOURNE
FROM THE ALBUM: THE OZZMAN COMETH
Tabbed by: Braden

Randy Rhoads plays this live with some variations from the studio version.
Also, I don't know the solo.  But find it on another tab, the solo
remains unchanged from the studio version.  It's not 100%, but it has 
enough good stuff to get you going at the very least. This is all my own
work. Email me at sk8man87@hotmail.com to tell me what you think of
it.

h=hammer on
/=slide to
pm..=palm mute
b=bend bar

Intro (do this line x2)
|-------------------------------------------------------------|
|-------------------------------------------------------------|
|-------------------------------------------------------------|
|-9-9-9-7-9----7-9-----9-9-9-7-9-----7-9----------------------|
|-7-7-7-----7-9----7-9-7-7-7-----7-9-----7-9------------------|
|-------------------------------------------------------------|

Verse (note changes from studio version)
Hammer on the 13 4 times.
|-------------------------------------------------------12h13-|
|-------------------------------------------------------------|
|-------------------------------------------------7-----------|
|-7-7--9--7-7--9--7-7--9--7-9-----7-7--9--7-7--9--5-7-9-------|
|-5-5--7--5-5--7--5-5--7-----7-9--5-5--7--5-5--7----5-7-------|
|-------------------------------------------------------------|
pm...     ...     ...             ...     ...

|-------------------------------------------------------------|
|-------------------------------------------------------------|
|-------------------------------------------------7-----------|
|-7-7--9--7-7--9--7-7--9--7-9-----7-7--9--7-7--9--5-7-9-------|
|-5-5--7--5-5--7--5-5--7-----7-9--5-5--7--5-5--7----5-7-------|
|-------------------------------------------------------------|
pm...     ...     ...             ...     ...

Post Verse (the e string part isn't perfect, but it goes 
with the song).
|----------------16-18-16-------------------------------------|
|-------------------------15/9--------------------------------|
|--------------------------------------------------13/1-------|
|-9b--5---7--9b-----------------9b-5--7--9b-------------------|
|-7---3---5--7------------------7--3--5--7--------------------|
|-------------------------------------------------------------|
Randy does some amazing picking right after each set of power chords
and I simply couldn't keep up.  The best I could do was simulate
this by sliding. It sounds ok.

Verse Again
|-------------------------------------------------------12h13-|
|-------------------------------------------------------------|
|-------------------------------------------------7-----------|
|-7-7--9--7-7--9--7-7--9--7-9-----7-7--9--7-7--9--5-7-9-------|
|-5-5--7--5-5--7--5-5--7-----7-9--5-5--7--5-5--7----5-7-------|
|-------------------------------------------------------------|
pm...     ...     ...             ...     ...

|-------------------------------------------------------------|
|-------------------------------------------------------------|
|-------------------------------------------------7-----------|
|-7-7--9--7-7--9--7-7--9--7-9-----7-7--9--7-7--9--5-7-9-------|
|-5-5--7--5-5--7--5-5--7-----7-9--5-5--7--5-5--7----5-7-------|
|-------------------------------------------------------------|
pm...     ...     ...             ...     ...

CHORUS 
|-------------------------------------------------------------|
|-------------------------------------------------------------|
|-------------------------------------------------------------|
|-9b--------------5---------------------7---------------------|
|-7---------------3---------------------5---------------------|
|-------------------------------------------------------------|
There's a quick riff after the D5 chord at the end of the chorus
that I can't get.

Verse Again
|-------------------------------------------------------12h13-|
|-------------------------------------------------------------|
|-------------------------------------------------7-----------|
|-7-7--9--7-7--9--7-7--9--7-9-----7-7--9--7-7--9--5-7-9-------|
|-5-5--7--5-5--7--5-5--7-----7-9--5-5--7--5-5--7----5-7-------|
|-------------------------------------------------------------|
pm...     ...     ...             ...     ...

|-------------------------------------------------------------|
|-------------------------------------------------------------|
|-------------------------------------------------7-----------|
|-7-7--9--7-7--9--7-7--9--7-9-----7-7--9--7-7--9--5-7-9-------|
|-5-5--7--5-5--7--5-5--7-----7-9--5-5--7--5-5--7----5-7-------|
|-------------------------------------------------------------|
pm...     ...     ...             ...     ...

SOLO (???????)

Verse Again
|-------------------------------------------------------12h13-|
|-------------------------------------------------------------|
|-------------------------------------------------7-----------|
|-7-7--9--7-7--9--7-7--9--7-9-----7-7--9--7-7--9--5-7-9-------|
|-5-5--7--5-5--7--5-5--7-----7-9--5-5--7--5-5--7----5-7-------|
|-------------------------------------------------------------|
pm...     ...     ...             ...     ...

|-------------------------------------------------------------|
|-------------------------------------------------------------|
|-------------------------------------------------7-----------|
|-7-7--9--7-7--9--7-7--9--7-9-----7-7--9--7-7--9--5-7-9-------|
|-5-5--7--5-5--7--5-5--7-----7-9--5-5--7--5-5--7----5-7-------|
|-------------------------------------------------------------|
pm...     ...     ...             ...     ...

Post
|----------------16-18-16-------------------------------------|
|-------------------------15/9--------------------------------|
|--------------------------------------------------13/1-------|
|-9b--5---7--9b-----------------9b-5--7--9b-------------------|
|-7---3---5--7------------------7--3--5--7--------------------|
|-------------------------------------------------------------|

Verse Again
|-------------------------------------------------------12h13-|
|-------------------------------------------------------------|
|-------------------------------------------------7-----------|
|-7-7--9--7-7--9--7-7--9--7-9-----7-7--9--7-7--9--5-7-9-------|
|-5-5--7--5-5--7--5-5--7-----7-9--5-5--7--5-5--7----5-7-------|
|-------------------------------------------------------------|
pm...     ...     ...             ...     ...

|-------------------------------------------------------------|
|-------------------------------------------------------------|
|-------------------------------------------------7-----------|
|-7-7--9--7-7--9--7-7--9--7-9-----7-7--9--7-7--9--5-7-9-------|
|-5-5--7--5-5--7--5-5--7-----7-9--5-5--7--5-5--7----5-7-------|
|-------------------------------------------------------------|
pm...     ...     ...             ...     ...

Outro (hammer on the 17 three times)
|-------------------------------------------------16h17-------|
|-------------------------------------------------------------|
|-------------------------------------------------------------|
|-7-7--9--7-7--9--7-7--9--7-9-----7-7--9--7-7--9--------------|
|-5-5--7--5-5--7--5-5--7-----7-9--5-5--7--5-5--7--------------|
|-------------------------------------------------------------|
pm...     ...     ...             ...     ...

|-------------------------------------------------------------|
|-------------------------------------------------------------|
|-------------------------------------------------------------|
|-7-7--9--7-------7-7--9--7-9-----7-7--9--7-7--9--------------|
|-5-5--7--5--9-7--5-5--7-----7-9--5-5--7--5-5--7--------------|
|------------7-5----------------------------------------------|
pm...             ...             ...     ....
Tap to rate this tab
# A B C D E F G H I J K L M N O P Q R S T U V W X Y Z