Song name
# A B C D E F G H I J K L M N O P Q R S T U V W X Y Z

Osbourne Ozzy - Perry Mason tab

Help us improve GuitareTab! Take a short survey!
Ozzy Osbourne
Perry Mason
 
Tuning e,b,g,d,a,d

INTRO AND CHORUS:
|------------------------------------------------------------------
|-3----5----6----8--10-------------------------HH------------------
|-5^---7^---8^--10^-12^--3----------\\\\-5-5---5-------PH----------
|------------------------3----------\\\\-5-5--------7---7----------
|------------------------1----------\\\\-3-3--------0--------------
|-------------------------------------------------------5----------

RIFF 1 (VERSE)
|------------------------------------------------------------------
|------------------------------------------------------------------
|------------------------------------------------------------------
|------------------------------------------------------------------
|---------3/5--------6-5-3h5-----------3h5--------6---PH-----------
|------0--3/5---0-0--6-5-3h5-0------0--3h5---0-0--6-5-3~~----------

RIFF 2
|---------------------------------------------------------------------
|-------------------3--------------------3----------------------------
|-------------------2--------------------2----------------------------
|-5-5-5-5-5-5-0-0-0-0--5-5-5-5-5-5-0-0-0-0--5-5-5-5-5-5-5-5-----------
|-5-5-5-5-5-5-0-0-0-0--5-5-5-5-5-5-0-0-0-0--5-5-5-5-5-5-5-5-----------
|-5-5-5-5-5-5-0-0-0-0--5-5-5-5-5-5-0-0-0-0--5-5-5-5-5-5-5-5-----------

|---------------------------
|---------------------------
|---------------------------
|-5-3-4-5-3-4-5-6-5-3-5-0---
|-5-3-4-5-3-4-5-6-5-3-5-0---
|-5-3-4-5-3-4-5-6-5-3-5-0---

"Calling perry mason again.............again....again.."
|------------------------|----------------------------------|
|------------------------|--------PH------------------------|
|------PH----PH----------|--------9~~~--PH------------------|
|-3----3~~~--2~~~--PH----|-3------------5~~~----------------|
|-1----------------4~~~--|-1-----------------2--3--5\-------|
|------------------------|-------------------2--3--5\-0-----|
"Wake me when it's over
|-----------------------------------------------------------|
|-----------------------------------------------------------|
|-----------------------------10~~~~~---10h12p10------------|
|-3---------2-----------------------------------------------|
|-1---------0--5---------2--8-------------------------------|
|--------------5---------2----------------------------------|

|-------------------------------------------------10\-------|
|-----------------------------------------------------------|
|-12^~~~-12^~~~--15~~~~~~~~-14~~~~-12-----9~~~~~------------|
|-----------------------------------------------------------|
|-----------------------------------------------------------|
|-----------------------------------------------------------|
               
SOLO:
|---------x-x-|--13---------|-----just keep bending back and forth
|-6-6-6-6-x-x-|--13-----13--|-13----------------------------|
|-5-5-5-5-----|--12^----12^-|-12^-^-^-^-^-^-^-^-^-^^--------|
|-x-x-x-x-----|-------------|-------------------------------|
|-5-5-5-5-----|-------------|-------------------------------|
|-------------|-------------|-------------------------------|

|-----------------------|---------------|-------------------|
|-----------------------|---------------|-------------------|
|-12p10---------9-10-12-|-9h10-9--6h7-6-|-------------------|
|-------12~~-12---------|---------------|-------------------|
|-----------------------|---------------|-------------------|
|-----------------------|---------------|-------------------|

|-tap on"9"----on "10"--------------on "12"-----------------|
|-----------------------------------------------------------|
|-9676-9676-976-107-10767-107-10767-127-12767-127-12767-----|
|-----------------------------------------------------------|
|-----------------------------------------------------------|
|-----------------------------------------------------------|

|--------------------------------------------------------------------------------------|
|--------------------------------------------------------------------------------------|
|-147-14767-147-14767-17p7-177147-17p7-177147-197-197-197-1975-21p7-21p7p5-19p7-21p7p5-|
|--------------------------------------------------------------------------------------|
|--------------------------------------------------------------------------------------|
|--------------------------------------------------------------------------------------|

|-15^-^~~~~--15^-^p13|-15--13~~--12h13--12\--10-|-----------|
|------------15^-----|--------------------------|-----------|
|--------------------|--------------------------|-----------|
|--------------------|--------------------------|-----------|
|--------------------|--------------------------|-----------|
|--------------------|--------------------------|-----------|

|15p13p10--------10-15p13p10--------10-15p13p10---------10--|
|--------13-10-13-----------13-10-13-----------13-10-13-----|
|-----------------------------------------------------------|
|-----------------------------------------------------------|
|-----------------------------------------------------------|
|-----------------------------------------------------------|

|16p15p13--------13-------------------17p15p13--------13-17p15p13--------|
|--------15-13-15-----------------------------15-13-15-------------------|
|---------------------*-/--------*-/------------------------------16^----|
|----------------------/----------/--------------------------------------|
|---------------------/--*-------/--*------------------------------------|
|------------------------------------------------------------------------|

|--------------13^-^(13)-10-|-----10---1010----------10--10-10-|
|-13^~~~~~~~~--13^-^(13)----|-13^--------13^-^-^-^-^-13^-13-13-|
|---------------------------|-------13-------------------------|
|---------------------------|----------------------------------|
|---------------------------|----------------------------------|
|---------------------------|----------------------------------|

|---------------------------|----------13-------------------|
|-10-----------12--10-12----|------13-----13-13-------------|
|-10-----------12--10-12-10-|-12^------------12^------------|
|-----12-10-12--------------|--------------------------17\--|
|---------------------------|-------------------------------|
|---------------------------|-------------------------------|

|----------------------------------------------------------------------|
|----------------------------------------------------------------------|
|-------141517------141517------141517------141517------141517---------|
|-141517------141517------141517------141517------141517------14\--/15-|
|----------------------------------------------------------------------|
|----------------------------------------------------------------------|

|-------------------------------13-17p13-15p13--13----------|
|-----------------13h15-15-13-15--------------15--17^--^(17)|
|----141517-141518------------------------------------------|
|-17--------------------------------------------------------|
|-----------------------------------------------------------|
|-----------------------------------------------------------|

OUTRO:
|-----------------------------------------|
|-----------------------------------------|
|-----------------------------------------|
|-----------------------------------------|
|-0-0-0-3^--0-0-0-5^--0-0-0-3^--0-5-0-6---|
|-0-0-0-3^--0-0-0-5^--0-0-0-3^--0-5-0-6---|
Related for Perry Mason tab