Song name
# A B C D E F G H I J K L M N O P Q R S T U V W X Y Z

Osbourne Ozzy - Bark At The Moon tab

                                                              


                                                                 
Jake E. Lee



                                                                             
E||-----|----------------------------------|--------------------------------|
B||--8--|--10----------10----------10------|------8----------8--------------|
G||--7--|--9-----------9-----------9-------|------9----------9--------------|
D||--5--|--7-----------7-----------7-------|------7----------7--------------|
A||-----|------0-0-0-0-----0-0-0-0-----0-0-|--0-0----0-0-0-0----0-0-3-0-0-0-|
E||-----|----------------------------------|--------------------------------|


                                                               
-------------------------------|------------------------------|
--8----------8----------8------|------6------6------6------8--|
--7----------7----------7------|------5------4------4------7--|
--5----------5----------5------|------3------5------5------5--|
-----0-0-0-0----0-0-0-0----0-0-|--0-0----0-0----0-0----0-0----|
-------------------------------|------------------------------|


                                                                    
----------------------------------|--------------------------------|
--10----------10----------10------|------8----------8--------------|
--9-----------9-----------9-------|------9----------9--------------|
--7-----------7-----------7-------|------7----------7--------------|
------0-0-0-0-----0-0-0-0-----0-0-|--0-0----0-0-0-0----0-0-5-0-0-0-|
----------------------------------|--------------------------------|


                                                           
-------------------------------|--------------------------|
--8----------8----------8------|--------------------------|
--7----------7----------7------|--------------------------|
--5----------5----------5------|--------------------------|
-----0-0-0-0----0-0-0-0----0-0-|--1--0--1--3--1--0--------|
-------------------------------|--------------------3--1--|


                                                                       
|------------------------------------|---------------------------------|
|--8/10----------10----------10------|------10----------8--------------|
|*-7/9-----------9-----------9-------|------9-----------9--------------|
|*-5/7-----------7-----------7-------|------7-----------7--------------|
|--------0-0-0-0-----0-0-0-0-----0-0-|--0-0-----0-0-0-0----0-0-0-0-0-0-|
|------------------------------------|---------------------------------|


                                                               
-------------------------------|--------------------5---------|
--8----------8----------8------|------6------6------3------6--|
--7----------7----------7------|------5------4-------------5--|
--5----------5----------5------|------3------5-------------3--|
-----0-0-0-0----0-0-0-0----0-0-|--0-0----0-0----0-0----0-0----|
-------------------------------|------------------------------|


                                                                     
----------------------------------|---------------------------------|
--10----------10----------10------|------10----------8--------------|
--9-----------9-----------9-------|------9-----------9--------------|
--7-----------7-----------7-------|------7-----------7--------------|
------0-0-0-0-----0-0-0-0-----0-0-|--0-0-----0-0-0-0----0-0-0-0-0-0-|
----------------------------------|---------------------------------|


                                                                               
-------------------------------|--------------------------|-------------------|
--8----------8----------8------|--------------------------|--2----------------|
--7----------7----------7------|--------------------------|--2----------------|
--5----------5----------5------|--------------------------|--4----------------|
-----0-0-0-0----0-0-0-0----0-0-|--1--0--1--3--1--0--------|--4----------------|
-------------------------------|--------------------0--1--|--2----------------|


                                                                             
-------------------|---------------------|----------------------------------|
--3----------------|---------------------|----------------------------------|
--2----------------|---------------------|----------------------------------|
--0----------------|---------------------|----------------------------------|
--0----------------|--2------------------|--4-4-----2-2-----5-5-----4-4-----|
-------------------|--0--------------2-2-|------2-2-----2-2-----2-2-----2-2-|


                                                            
-------------------|-------------------|-------------------|
--2----------------|--3----------------|--5----------------|
--2----------------|--2----------------|--4----------------|
--4----------------|--0----------------|--2----------------|
--4----------------|--0----------------|-------------------|
--2----------------|-------------------|-------------------|


                                                        
--------------------|-----------------------------------|
--5-----------------|-8/10----------10----------10------|
--4-----------------|-7/9-----------9-----------9-------|
--2-----------------|-5/7-----------7-----------7-------|
--------------------|-------0-0-0-0-----0-0-0-0-----0-0-|
--------------------|-----------------------------------|


                                                                 
--------------------------------|-------------------------------|
------8----------8--------------|--8----------8----------8------|
------9----------9--------------|--7----------7----------7------|
------7----------7--------------|--5----------5----------5------|
--0-0----0-0-0-0----0-0-3-0-0-0-|-----0-0-0-0----0-0-0-0----0-0-|
--------------------------------|-------------------------------|


                                                                  
------------------------------|----------------------------------|
------6------6------6------8--|--10----------10----------10------|
------5------4------4------7--|--9-----------9-----------9-------|
------3------5------5------5--|--7-----------7-----------7-------|
--0-0----0-0----0-0----0-0----|------0-0-0-0-----0-0-0-0-----0-0-|
------------------------------|----------------------------------|


                                                                 
--------------------------------|-------------------------------|
------8----------8--------------|--8----------8----------8------|
------9----------9--------------|--7----------7----------7------|
------7----------7--------------|--5----------5----------5------|
--0-0----0-0-0-0----0-0-5-0-0-0-|-----0-0-0-0----0-0-0-0----0-0-|
--------------------------------|-------------------------------|


                                                                            
---------------------------||--------------------|-------------------------|
---------------------------||--5-----------------|-------------------------|
--------------------------*||--4-----------------|--2----------5--7-----4--|
--------------------------*||--2----2------------|--2----------5--5-----5--|
--1--0--1--3--1--0---------||--------------------|--0----0--0--------0-----|
--------------------3--1---||--------------------|-------------------------|


                                                                                
----------------------------|-------------------------|------------------------|
----------------------------|-------------------------|----------5------5------|
--------4------5/7/5--4-----|--4/-2-----2------2------|--2--4----4------4------|
----5-5----5-5-x------x-----|--5/-3-----3------3------|--3--2----2------2------|
---------------3/5/3--2-----|--------0------------0-0-|--------------------0-0-|
-------------------------3--|-------------------------|------------------------|


                                                            
--------------------------|--------------------------------|
--------------------------|--------------------------------|
--2-----------5--7-----4--|--------4-4-----7-7-5-5-4-4-----|
--2-----------5--5-----5--|----5-5-----5-5-------------5-5-|
--0----0--0-0-------0-----|--------------------------------|
--------------------------|--------------------------------|


                                                                            
-------------------------|-----------------------|-------------------------|
-------------------------|----------5------5-----|-------------------------|
--4/-2-----2------2------|--2--4----4------4-----|-------------------------|
--5/-3-----3------3------|--3--2----2------2-----|-------------------------|
--------0------------0-0-|-----------------------|--------3-----2~---3-----|
-------------------------|--------------------0--|--1--1-----1----------0--|


                                                                            
-------------------------|--3--------5--3--3--3--|--3--3-------------------|
-------------------------|--3--------3--3--3--3--|--3--3-------------------|
-------------------------|--0--------0--0--0--0--|--0--0--5b---5--4--------|
-------------------------|--0--------------------|-------------------5-----|
--------3-----2~---3-----|--x--------------------|-------------------------|
--1--1-----1----------1--|--3--------------------|----------------------0--|


                                                                            
-------------------------|-------------------------|--3--------5--3--3--3--|
-------------------------|-------------------------|--3--------3--3--3--3--|
-------------------------|-------------------------|--0--------0--0--0--0--|
-------------------------|-------------------------|--0--------------------|
--------3-----2~---3-----|--------3-----2~---3-----|--x--------------------|
--1--1-----1----------0--|--1--1-----1----------1--|--3--------------------|


                                                                              
--3--3-------------------|-------------------------|-------------------------|
--3--3-------------------|-------------------------|-------------------------|
--0--0--5b---5--4--------|-------------------------|-------------------------|
-------------------5-----|-------------------------|-------------------------|
-------------------------|--------3-----2~---3-----|--------3-----2~---3-----|
----------------------0--|--1--1-----1----------0--|--1--1-----1----------1--|


                                                                       
--3--------5--3--3--3--|--3--3-------------------|--------------------|
--3--------3--3--3--3--|--3--3-------------------|--------------------|
--0--------0--0--0--0--|--0--0--5b---5--4--------|-----------------9--|
--0--------------------|-------------------5-----|--3--------------9--|
--x--------------------|-------------------------|--3--------------7--|
--3--------------------|----------------------0--|--1-----------------|


                                                                 
--------------------|---------------------|-----------6----6----|
--------------------|------------------3--|-----------6----6----|
--7--------------5--|--3------------5-----|------5--------------|
--7--------------5--|--3------------------|---------------------|
--5--------------3--|--1------------------|---------------------|
--------------------|---------------------|---------------------|


                                                                           
---------------------|--------------------|
-----------5---------|------5-------------|
--5---------------7--|-------------7------|
--5------------------|--------------------|
--3------------------|--------------------|
---------------------|--------------------|

Solo:
|--------------------------|
|---13~~~~~------13-10-13b-|
|--------------------------|
|--------------------------|
|--------------------------|
|--------------------------|


                                                          
----------10----------------|----------------------------|
--------------13--10--------|----------------------------|
----------------------12b---|-----10-12--10----9--10--9--|
----------------------------|----------------------------|
----------------------------|----------------------------|
----------------------------|----------------------------|


                                                                        
--------------------------------|--------------------------------------|
--------------------------------|--------------------------------------|
--10-9-----9--------------------|--------------------10-12b---10-12----|
-------12-----10--12------10----|--10----12----10-12-------------------|
-----------------------------12-|-----12----12-------------------------|
--------------------------------|--------------------------------------|


                                                             
-----------------------|------------------------------------|
-----------20b---------|------20r-18--17-18-17----17--------|
--2/---17--------------|-----------------------19----17-19--|
-----------------------|------------------------------------|
-----------------------|------------------------------------|
-----------------------|------------------------------------|


                                                                              
------------------------------|----------------------------------------------|
--------------22-18-----------|------18--22-18-20-18-17-18-17--------17------|
------17--19--------19----17--|--19---------------------------17-------------|
------------------------------|----------------------------------19------19--|
------------------------------|----------------------------------------------|
------------------------------|----------------------------------------------|


                                                                            
------------------------------|--------10-------------10-------------------|
------------------------------|----19b----13-10----10----13-10-------------|
--17-19-19b---19r17-19~-------|-----------------12b------------12-10-12b12r|
------------------------------|--------------------------------------------|
------------------------------|--------------------------------------------|
------------------------------|--------------------------------------------|


                                                            
----------------------------------|------------------------|
----------------------------------|------------------------|
--10----12--10--------------------|------------------------|
-----12---------12-10-12----10----|--8------7------5--x-10-|
----------------------------------|------------------------|
----------------------------------|------------------------|


                                                           
-----------------------|----------------------------------|
-----------------------|--------10------10--12b-----------|
-----------------------|--------10------10--12b-12-10-----|
--10------8------10----|--12--------12----------------12--|
-----------------------|----------------------------------|
-----------------------|----------------------------------|


                                                              
--------------------------|----------------------------------|
--12--10------------------|----------------------------------|
--12--10------------------|----------------------------------|
----------10--12----------|------------------------5-7-5-7-8-|
--------------------------|----------5---5-7-8-7-8-----------|
--------------------------|--8-5-5-8---8---------------------|


                                                               
---------------------------|----------------------------------|
----------5---5-6-6b-------|----------------------------------|
--5---5-7---7--------------|--------------------------------5-|
----8----------------------|------------------5---5-7-8-7-8---|
---------------------------|----------7-5-7-8---8-------------|
---------------------------|--8-5-8-8-------------------------|


                                                                     
---------------------------|----------------------------------------|
--------5-6-5-6-8-8b-------|----------------------------------------|
--7-5-7--------------------|--------------------------------------7-|
---------------------------|---------------------7----7-8-10-8-10---|
---------------------------|----------7-8-7-8-10---10---------------|
---------------------------|--10-8-10-------------------------------|


                                            
------------------------------8-10-8-10-12-|
-----------8----8-10-11-10-11--------------|
--9-7-9-10---10----------------------------|
-------------------------------------------|
-------------------------------------------|
-------------------------------------------|


                                                                    
--13-12-10-------------------10-12-1-13-12-------------------12-15-|
-----------13-11-10-10-11-13---------------15-13-11-13-15-15-------|
-------------------------------------------------------------------|
-------------------------------------------------------------------|
-------------------------------------------------------------------|
-------------------------------------------------------------------|


                                                             
--17-15-13----------------14-16-18-17-15----------------17~~|
-----------17-15-13-15-17----------------18-17-15-18-19-----|
------------------------------------------------------------|
------------------------------------------------------------|
------------------------------------------------------------|
------------------------------------------------------------|


                                                            

                                                                              
--------------|----------------------------------|
-----------8--|--10----------10----------10------|
-----------7--|--9-----------9-----------9-------|
-----------5--|--7-----------7-----------7-------|
--------0-----|------0-0-0-0-----0-0-0-0-----0-0-|
--------------|----------------------------------|


                                                                 
--------------------------------|-------------------------------|
------8----------8--------------|--8----------8----------8------|
------9----------9--------------|--7----------7----------7------|
------7----------7--------------|--5----------5----------5------|
--0-0----0-0-0-0----0-0-3-0-0-0-|-----0-0-0-0----0-0-0-0----0-0-|
--------------------------------|-------------------------------|


                                                                  
------------------------------|----------------------------------|
------6------6------6------8--|--10----------10----------10------|
------5------4------4------7--|--9-----------9-----------9-------|
------3------5------5------5--|--7-----------7-----------7-------|
--0-0----0-0----0-0----0-0----|------0-0-0-0-----0-0-0-0-----0-0-|
------------------------------|----------------------------------|


                                                                 
--------------------------------|-------------------------------|
------8----------8--------------|--8----------8----------8------|
------9----------9--------------|--7----------7----------7------|
------7----------7--------------|--5----------5----------5------|
--0-0----0-0-0-0----0-0-5-0-0-0-|-----0-0-0-0----0-0-0-0----0-0-|
--------------------------------|-------------------------------|


                                                      
--------------------|-----------------------------------|
--5-----------------|-8/10----------10----------10------|
--4-----------------|-7/9-----------9-----------9-------|
--2-----------------|-5/7-----------7-----------7-------|
--------------------|-------0-0-0-0-----0-0-0-0-----0-0-|
--------------------|-----------------------------------|


                                                                 
--------------------------------|-------------------------------|
------8----------8--------------|--8----------8----------8------|
------9----------9--------------|--7----------7----------7------|
------7----------7--------------|--5----------5----------5------|
--0-0----0-0-0-0----0-0-3-0-0-0-|-----0-0-0-0----0-0-0-0----0-0-|
--------------------------------|-------------------------------|


                                                                  
------------------------------|----------------------------------|
------6------6------6------8--|--10----------10----------10------|
------5------4------4------7--|--9-----------9-----------9-------|
------3------5------5------5--|--7-----------7-----------7-------|
--0-0----0-0----0-0----0-0----|------0-0-0-0-----0-0-0-0-----0-0-|
------------------------------|----------------------------------|


                                                                 
--------------------------------|-------------------------------|
------8----------8--------------|--8----------8----------8------|
------9----------9--------------|--7----------7----------7------|
------7----------7--------------|--5----------5----------5------|
--0-0----0-0-0-0----0-0-5-0-0-0-|-----0-0-0-0----0-0-0-0----0-0-|
--------------------------------|-------------------------------|


                                                                            
---------------------------|-------------------------|
---------------------------|-------------------------|
--------------------------*|--2----------5--7-----4--|
--------------------------*|--2----------5--5-----5--|
--1--0--1--3--1--0---------|--0----0--0--------0-----|
--------------------3--1---|-------------------------|


                                                                                
----------------------------|-------------------------|------------------------|
----------------------------|-------------------------|----------5------5------|
--------4------5/7/5--4-----|--4/-2-----2------2------|--2--4----4------4------|
----5-5----5-5-x------x-----|--5/-3-----3------3------|--3--2----2------2------|
---------------3/5/3--2-----|--------0------------0-0-|--------------------0-0-|
-------------------------3--|-------------------------|------------------------|


                                                            
--------------------------|--------------------------------|
--------------------------|--------------------------------|
--2-----------5--7-----4--|--------4-4-----7-7-5-5-4-4-----|
--2-----------5--5-----5--|----5-5-----5-5-------------5-5-|
--0----0--0-0-------0-----|--------------------------------|
--------------------------|--------------------------------|


                                                                            
-------------------------|-----------------------|
-------------------------|----------5------5-----|
--4/-2-----2------2------|--2--4----4------4-----|
--5/-3-----3------3------|--3--2----2------2-----|
--------0------------0-0-|-----------------------|
-------------------------|--------------------0--|

--------------------------||--------------------------|
--------------------------||*--2----------5--7-----4--|
--------------------------||*--2----------5--5-----5--|
--1--0--1--3--1--0--------||---0----0--0--------0-----|
--------------------3--1--||--------------------------|


                                                                                
----------------------------|-------------------------|------------------------|
----------------------------|-------------------------|----------5------5------|
--------4------5/7/5--4-----|--4/-2-----2------2------|--2--4----4------4------|
----5-5----5-5-x------x-----|--5/-3-----3------3------|--3--2----2------2------|
---------------3/5/3--2-----|--------0------------0-0-|--------------------0-0-|
-------------------------3--|-------------------------|------------------------|


                                                       
-------------------------|----------------------------|
-------------------------|----------------------------|
--2----------5--7-----4--|--------4------5/7/5--4-----|
--2----------5--5-----5--|----5-5----5-5-x------x-----|
--0----0--0--------0-----|---------------3/5/3--2-----|
-------------------------|-------------------------3--|


                                                                             
-------------------------|-------------------------|
-------------------------|----------5------5-------|
--4/-2-----2------2------|--2--4----4------4------*|repeat 4 times
--5/-3-----3------3------|--3--2----2------2------*|
--------0------------0-0-|--------------------0-0--|

      


------||---8-7-7-7-8-7-8-7------8-7-8-7----7-|
------||-------------------10-8---------10---|
------||*------------------------------------|
------||*------------------------------------|
------||-------------------------------------|
------||-------------------------------------|


                                       
--10-7---7-10-7-10-7-7-------10-7---8-|
-------8---------------8-8-8------8---|
--------------------------------------|
--------------------------------------|
--------------------------------------|
--------------------------------------|


                                           
--12-8----8-12-8-12-8----8-12-8-12-8----8-|
------------------------------------------|
-------10-------------10-------------10---|
------------------------------------------|
------------------------------------------|
------------------------------------------|


                                                                              
--10-7---7-10-7-10-7---7-10-7-10-7-7-7-|--8-7----7-8-7-8-7----7-8-7-8-7----7-|
---------------------------------------|------10-----------10-----------10---|
-------9-------------9-----------------|-------------------------------------|
---------------------------------------|-------------------------------------|
---------------------------------------|-------------------------------------|
---------------------------------------|-------------------------------------|


                                        
--10-7---7-10-7-10-7---7-10-7-10-7-7-8-|
-------8-------------8-----------------|
---------------------------------------|
---------------------------------------|
---------------------------------------|
---------------------------------------|


                                         
--12-8----8-12-8-12-8----8-12-8-12-8-8--|
----------------------------------------|
-------10-------------10----------------|
----------------------------------------|
----------------------------------------|
----------------------------------------|


                                                   this is the ending note              
--13-12-10-12-10-8-7----7-8-7----7---------|               |------ 
---------------------10-------10---10-8----|               |--10--
----------------------------------------9-*|repeat 4 times |------
------------------------------------------*|               |------
-------------------------------------------|               |------
-------------------------------------------|               |------


                                    


           



Tap to rate this tab
 
# A B C D E F G H I J K L M N O P Q R S T U V W X Y Z