Song name
# A B C D E F G H I J K L M N O P Q R S T U V W X Y Z

Oscar Isaac - Shoals Of Herring tab

-----------------------------------------------------------------------------
			     SHOALS OF HERRING - Oscar Isaac
-----------------------------------------------------------------------------
Tabbed by:Anonymous

Tuning:Standard EADGBe

e|-------------0-----------0---2------0-----------------------0------------0-|
B|----------2-----------2------3-------------3p0-----------2------------2----|
G|-------2-----------2---------2-------------1----------2------------2-------|
D|-----------------------------0-------------2-------------------------------|
A|----0----------------------------------------------0-----------------------|
E|----------------0-----------------------------------------------0----------|

e|-------------0--------0-------------0-----------0---3------0---------------|
B|----------2--------2-------------2-----------2------2-------------------0--|
G|-------2----------------------2-----------2---------3----------------------|
D|----------------------------------------------------0-------------2--------|
A|----0---------------------0---------------------------------------2--------|
E|----------------0----------------------0--------------------------0--------|

e|---------------------------------------------------------------------------|
B|-------------2-----------2--------------------------------------------0----|
G|----------2-----------2--------------2-----------1-----------1-----1-------|
D|-------2-----------2--------------2-----------2-----------2----------------|
A|----0--------------------------------------2-----------2----------------0--|
E|----------------4-----------2-----------0-----------2-----------4----------|

e|---------------------------------------------------------------------------|
B|----2----------------3-----------------------------------------------------|
G|----2--------1-------2-------------------------------2------------2--------|
D|----2--------2-------0---------4--2-----0---------4------------4-----------|
A|-------------2-------------------------------4-----------------------------|
E|-------------0------------------------------------------2------------------|

e|-------------0-----------0-----------2--------------0----------------------|
B|----------2-----------2-----------3--------------0-------------------------|
G|-------2-----------2-----------2--------------1----------------------------|
D|----------------------------0----------------------------------------------|
A|----0---------------------------------------------------0------------------|
E|----------------0-----------------------0----------------------------------|


************************************

| /   slide up
| \   slide down
| h   hammer-on
| p   pull-off
| ~   vibrato
| +   harmonic
| x   Mute note
| b   Bend
| pb  Pre-bend
| br  Bend release
| pbr Pre-bend release
| brb Bend release bend

************************************
Tap to rate this tab
# A B C D E F G H I J K L M N O P Q R S T U V W X Y Z