Song name
# A B C D E F G H I J K L M N O P Q R S T U V W X Y Z

Oscar Isaac - Shoals Of Herring tab

Shoals of Herring, Oscar Isaac Version
Swift Guitar Lessons - Philadelphia

Section #1:

     A   A/E    D   E7   A    A/E
E|------------|-2-------|-----------|
B|-----2----2-|-3-2-3-2-|---2-----2-|
G|----2----2--|-2---1---|--2-----2--|
D|---2----2---|-0---2---|-2-----2---|
A|--0---------|-----2---|0----------|
E|-------0----|-----0---|-----0-----|
Section #2:

     A   A/G#   A/F#  E
E|------------|------------|
B|-----2----2-|-----2----0-|
G|----2----2--|----2----1--|
D|---2----2---|---2----2---|
A|--0---------|------------|
E|-------4----|-2-----0----|
Section #3:

    E   E/F#   E/G# 
E|------------|--------|
B|----0----0--|----0---|
G|---1----1---|---1----|
D|--2----2----|--2-----|
A|------------|--------|
E|-0----2-----|-4------|

Section #4:

    A    E      D       F#m
E|------------|-2------------|
B|----2----0--|-3----------2-|
G|---2----1---|-2---------2--|
D|--2----2----|-0-4-2-0--4---|
A|-0----------|--------------|
E|------0-----|---------2----|
Section #5: Repeat Section #1
Amajor scale descending line at end of verse 3:

  D
E|-2------------0--|
B|-3------------0--|
G|-2-2----------1--|
D|-0--4-2-0-----2--|
A|---------4-2--2--|
E|--------------0--|

Coda Chords:

          A                 D  A
Night and day the seas were daring
      A       D                E         
Come wind oh come more winter again
A           D             A           D    E  F#m
Sweating or cold, growing up, growing old, Or dying
      A               D         E   A
As we dream about the shoals of herring
Tap to rate this tab
 
# A B C D E F G H I J K L M N O P Q R S T U V W X Y Z