Song name
# A B C D E F G H I J K L M N O P Q R S T U V W X Y Z

Oscar Lopez - Flavor tab

-----------------------------------|
-----------------------------------|
-----------------------------------|   13 times // 13 fois
-----------------------------------|
-----------------------------------|     Then // puis
--2-2-0-2----2-2--0-2-2-0-2---2-2--|


    Suddenly, you spread from my hands
-----------------------------------------------------------------------|
-----------------------------------------------------------------------|
-----------------------------------------------------------------------|
-----------------------------------------------------------------------|
------------0-0-0-0---------2-2-2-2------------------------------------|
--0-2-2-2-2---------0-0-0-0-----------2-2-0-2----2-2--0-2-2-0-2---2-2--|

    Far away, you've drummed in my mind

-----------------------------------------------------------------------|
-----------------------------------------------------------------------|
-----------------------------------------------------------------------|
-----------------------------------------------------------------------|
------------0-0-0-0---------2-2-2-2------------------------------------|
--0-2-2-2-2---------0-0-0-0-----------2-2-0-2----2-2--0-2-2-0-2---2-2--|

    My mind...

-------------------------------------------------------|
-------------------------------------------------------|
-------------------------------------------------------|
-------------------------------------------------------|
---0-0-0-0-2-2-2---------------------------------------|
-----------------0-2-2-0-2----2-2--0-2-2-0-2---2-2-----|

(Same for the next verses /// De même pour les strophes suivantes)

That's the only thing we can decide
Rest is down, somewhere the sirens are
Sirens are...

We arrived in the roams of nowhere
Smells of gasoline, taste of chemistry,
Chemistry... (3x)

---------------------------------------|
---------------------------------------|      The whole is played 8 times
---------------------------------------|
---4---4-4--4-4---4--4---4--4--4-4-----|               /////////
---4---4-4--4-4---4--4---4--4--4-4-----|
---2---2-2--2-2---2--2---2--2--2-2-----|        Le tout est joué 8 fois

---------------------------------------|
---------------------------------------|
------------2-2-2-2---------4-4-4-4----|
-4--4-4-4-4-2-2-2-2-2-2-2-2-4-4-4-4-2--|
-4--4-4-4-4-0-0-0-0-2-2-2-2-2-2-2-2-2--|
-2--2-2-2-2---------0-0-0-0---------0--|
Tap to rate this tab
# A B C D E F G H I J K L M N O P Q R S T U V W X Y Z