Song name
# A B C D E F G H I J K L M N O P Q R S T U V W X Y Z

Oskar Linnros - Annie Hall chords

Highlighted       Show chord diagrams
-------------------------------------------------------------------------
ANNIE HALL – Oskar Linnros
-------------------------------------------------------------------------
Tabbed by: Kengus

Standard tuning
Capo on first fret!
*************************************************************************
 C = x32010   Fmaj7 = 133210   Em/G = 322000
 F = 133211   Gsus4 = 320013  Asus4 = x02230
Am = x02210  D7sus2 = xx0210
 G = 320003      Em = 022000
*************************************************************************

INTRO
       C                F       Am     C        G
e|-----0-0-0-----0--0-3-5-5-5-3-0------0-0-0-----0-------|
B|-1-3-------3-3-------------------1-3-------3-3----1-3--|
G|-------------------------------------------------------|
D|-------------------------------------------------------|
A|-------------------------------------------------------|
E|-------------------------------------------------------|

VERSE I
C                       Fmaj7                 C
Om du vore mer som mig, skulle jag gå ner på dig
                     Gsus4            G
Om du vore mer som hon i Annie Hall
C                     F                   Am
Ännu en så-länge-vän, ännu mer för länge sen
C                      Gsus4            G
Som jag blev förvånad över nåt nån sa

CHORUS
D7sus2                      Em  D7sus2                Em
 Säg mig att det finns nåt mer,  mer än bara droger och dan efter
Fmaj7                  Em      Em/G     Asus4
 Säg mig att det inte var det här det var
    Fmaj7                  Em     Fmaj7  G             C...
Och säg mig att du kommer bli lite     mer som Annie Hall

INTERLUDE
                     ...F       Am     C        Gsus4    G
e|-----0-0-0-----0--0-3-5-5-5-3-0------0-0-0-----0---------|
B|-1-3-------3-3-------------------1-3-------3-3----1-3----|
G|---------------------------------------------------------|
D|---------------------------------------------------------|
A|---------------------------------------------------------|
E|---------------------------------------------------------|

VERSE II
C                         Fmaj7                  C
Om du vore bränd som mig, skulle jag gå hem med dig
                       Gsus4            G
Skulle du va allt jag nånsin velat ha
     C                     F                     Am
Mmm, ännu en så-länge-vän, vakna i en främlings säng
     C                   Gsus4                 G
Och säga "gud vad du var söt när du var barn"

CHORUS
   D7sus2                   Em              D7sus2         Em
Och säg mig att det finns nåt mer (nåt mer), mera än Ikeasoffans tystnad
Fmaj7                    Em  Em/G     Asus4
 Säg mig att vi har nån överraskning kvar
   Fmaj7                Em        Fmaj7  G           C...
Och säg mig att du kommer bli lite     mer som Annie Hall

INTERLUDE
                     ...F       Am     C        Gsus4    G
e|-----0-0-0-----0--0-3-5-5-5-3-0------0-0-0-----0---------|
B|-1-3-------3-3-------------------1-3-------3-3----1-3----|
G|---------------------------------------------------------|
D|---------------------------------------------------------|
A|---------------------------------------------------------|
E|---------------------------------------------------------|
         C                F       Am     C        Gsus4    G
e|-------0-0-0-----0--0-3-5-5-5-3-0------0-0-0-----0---------|
B|-1-1-3-------3-3-------------------1-3-------3-3----1-3----|
G|-----------------------------------------------------------|
D|-----------------------------------------------------------|
A|-----------------------------------------------------------|
E|-----------------------------------------------------------|

CHORUS
D7sus2                  Em          D7sus2                Em
  Om vi bara vore nåt mer (nåt mer), mer än bara nästan lika snygga
D7sus2             Em     Em/G  Asus4
  Om du inte vore som dom är i stan
Fmaj7               Em    Fmaj7   G          (C)
 Om du bara kunde bli som jag och,  och Annie Hall.

=========================================================================
Comment, rate, appreciate!
Tap to rate this tab
 
# A B C D E F G H I J K L M N O P Q R S T U V W X Y Z