Song name
# A B C D E F G H I J K L M N O P Q R S T U V W X Y Z

Oskar Linnros - Fran Och Med Du chords

Highlighted       Show chord diagrams
-----------------------------------------------------------------------------
                       Fran och med du - Oskar Linnros
-----------------------------------------------------------------------------
Tabbed by: Schottis
Email: Schottis@gmail.com

Tuning: Standard / Capo on 1st 

The same pattern goes on for the whole song.
Also the same for the Robyn Mash-up with "Dancing on my own", except with a capo on 1st...


 | F     Am     | Bb     Bb/C C |
e|-1-----0--------1------5----0---------------------------------------------|
B|-1-----1--------3------2----1---------------------------------------------|
G|-2-----2--------3------4----0---------------------------------------------|
D|-3-----2--------3------2----2---------------------------------------------|
A|-3-----0--------1------2----3---------------------------------------------|
E|-1-----0--------1------x----0---------------------------------------------|

Listen to the song to get a feeling for the rhythm.
Tap to rate this tab
 
# A B C D E F G H I J K L M N O P Q R S T U V W X Y Z