Song name
# A B C D E F G H I J K L M N O P Q R S T U V W X Y Z

Osker - Anchor Acoustic tab

First off this is my first tab so suck one if you don't like it.
But its almost 100%... If not its 97% right.

Alright, this is the way Devon plays the song in an interview.
He left a few parts out.

*The video of him playing it is on youtube. Just search "Osker".
And it  will be one of the first ones from the top. I'm not gonna type out the strumming 
bu its close enough. Just watch the video for the exact strumming, its pretty easy to 
down.

Anyway its rad song, from a rad dude.


Standard tuning.
                               "Christine im tired..."
e------------------------------------------------------------------|
B--------------------------------------------101010101010991010----|
G--99999--99-99-------------------------------9-9-9-9-9-999-9-9----|
D--99999--77-66----x4--10/111111111111111111-----------------------|
A--77777---------------10/111111111111111111-----------------------|
E-----------------------8/-9-9-9-9-9-9-9-9-9-----------------------|
                          "ya im still here, Im not going..."
 ------------------------------------------------------------------|
 ------------------------------------------------------------------|
 --999999999------------666666666--222222222--111111111--444444444-|
 --999999999-999999999--666666666--222222222--222222222--444444444-|  x1
 --777777777-999999999--444444444--000000000--222222222--222222222-|
 ------------777777777---------------------------------------------|
 "What if I try and stop?..."    "Until the anchor breaks..."
 ----------------------------------------------------|
 ----------------------------------------------------|
 -66666-44444-2222222222-----------------------------|
 -66666-44444-2222222222--x2---444/666/777777777-----|
 -44444-22222-0000000000-------444/666/777777777--x2-|
 ------------------------------222/444/555555555-----|
    "four years ahead.."
 --------------------------------------------------------------------|
 --------------------------------------------------------------------|
 --444444444-222222222------444444444-66666-44444-222222222222222222-|
 --444444444-222222222--x3--444444444-66666-44444-222222222222222222-|
 --222222222-000000000------222222222-44444-22222-000000000000000000-|
 --------------------------------------------------------------------|
 "Are we so tired waiting fordays to end..."
 ------------------------------------------|
 ------------------------------------------|
 --666666666-222222222-111111111-444444444-|
 --666666666-222222222-222222222-444444444-| x2
 --444444444-000000000-222222222-222222222-|
 ------------------------------------------|
 "What If I try and stop?..."   "until the anchor breaks..."
 ----------------------------------------------------|
 ----------------------------------------------------|
 -66666-44444-2222222222-----------------------------|
 -66666-44444-2222222222--x2---444/666/777777777-----|
 -44444-22222-0000000000-------444/666/777777777--x2-|
 ------------------------------222/444/555555555-----|
 "Dear everyone ive been thinkin..."
 --------------------------------------------------------------------|
 --------------------------------------------------------------------|
 --444444444-222222222------444444444-66666-44444-222222222222222222-|
 --444444444-222222222--x3--444444444-66666-44444-222222222222222222-|
 --222222222-000000000------222222222-44444-22222-000000000000000000-|
 --------------------------------------------------------------------|

   The end:)

Any questions? just ask. !
Tap to rate this tab
# A B C D E F G H I J K L M N O P Q R S T U V W X Y Z