Guitaretab - guitar tabs
Song name
# A B C D E F G H I J K L M N O P Q R S T U V W X Y Z
Home / O / Osker / Panic tab

Osker - Panic tab

First of all i would like to thank everyone who has taken the time to write tabs, i 
be playing guitar without you!

Now its time to give something back, so here's my first tab, im sure its almost 100% and 
be played LOUD as its one of the coolest songs i know. Enjoy.

Charles
el-duderino@hotmail.co.uk

Standard Tuning EADGBe This has two guitars but i've writen this for one.

x=Palm Mute

Intro

e-------------------------------------
B-------------------------------------
G-------------------------------------
D-7-77-777-5-55-555-3-33-333-3-33-333- X4   On 4th start to fade out
A-7-77-777-5-55-555-3-33-333-3-33-333-      palm mute
E-5-55-555-3-33-333-1-11-111-1-11-111-
   x xx xxx x xx xxx x xx xxx x xx xxx

e-------------------------------------
B-------------------------------------
G-------------------------------------
D-7-77-777-5-55-555-3-33-333-3-33-333- X2
A-7-77-777-5-55-555-3-33-333-3-33-333-
E-5-55-555-3-33-333-1-11-111-1-11-111-

Verse

e-------------------------------------
B-------------------------------------
G-------------------------------------
D-7-77-777-33-55-2-3-33-333-3-33-333-- X2
A-7-77-777-33-55-2-3-33-333-3-33-333--
E-5-55-555-11-33-0-1-11-111-1-11-111--

Pre-Chorus

e-------------------------------------------------------------------------
B-------------------------------------------------------------------------
G-5-55-555-5-55-555-------------------------------------10-9-10-12-10-9---
D-5-55-555-5-55-555-5-55-555-5-55-555-3-33-333-3-33-333-x--x-x--x--x--x---
A-3-33-333-3-33-333-5-55-555-5-55-555-3-33-333-3-33-333-8--7-8--10-8--7---
E-------------------3-33-333-3-33-333-1-11-111-1-11-111-------------------
[ Tab from: http://www.guitaretab.com/o/osker/139823.html ]
e-------------------------------------------------------------------------
B-------------------------------------------------------------------------
G-5-55-555-5-55-555-------------------------------------------------------
D-5-55-555-5-55-555-5-55-555-5-55-555-3-33-333-3-33-333-3-33-333-3-33-333-
A-3-33-333-3-33-333-5-55-555-5-55-555-3-33-333-3-33-333-3-33-333-3-33-333-
E-------------------3-33-333-3-33-333-1-11-111-1-11-111-1-11-111-1-11-111-

Chorus

e-------------------------------------
B-------------------------------------
G-2-22-222-5-55-555-------------------
D-2-22-222-5-55-555-5-55-555-5-55-555- X4
A-0-00-000-3-33-333-5-55-555-5-55-555-
E-------------------3-33-333-3-33-333-

2nd Verse

e---------------------------------------------------
B---------------------------------------------------
G---------------------------------------------------
D-7---------3---------5---------2---------3--------- x2
E-3---------1---------5---------2---------3---------
A-5---------1---------3---------0---------1---------

Pre-Chorus

Chorus

Bridge

e----------------
B----------------
G----------------
D-7--------------
A-7--------------
E-5--------------

e------------------------
B------------------------
G------------------------
D-----------------2------ X4 Like with the intro fade out palm mute no 4th
E--7777--7777--333--5553-
A-5----55----51----3-----
   xxxxxxxxxxxxxxxxxxxxxx

e------------------------    e-------------------------
B------------------------    B-------------------------
G------------------------    G-------------------------
D---------------2-------- X3 D----------------2--------
A--7777--7777--3--53-----    A---7777--7777--3---------
E-5----55----51--3-------    E-5----55-----51--3-------

Pre-Chorus

Chorus

Finish on

e-----------
B-----------
G-----------
D-7--------- Let Ring
A-7---------
E-5---------
Related for Panic tab