Song name
# A B C D E F G H I J K L M N O P Q R S T U V W X Y Z

Osker - Ballad Of A Traitor tab

BALLAD OF A TRAITOR - Osker 

Transcribed by: concrete@dog.com - www.angelfire.com/punk/oskertab 

verse 
---------------------------------|-------------------------------------------- 
---------------------------------|-------------------------------------------- 
---------------------------------|-------------------------------------------- 
---------------------9-9-9-5-5-5-|-7-7-7-7-6-7-7-7-7-7-7-7-7------------------ 
-5-5-5-5-5-5-5-5-5-5-7-7-7-3-3-3-|-5-5-5-5-4-5-5-5-5-5-5-5-5------------------ 
-3-3-3-3-3-3-3-3-3-3-------------|-------------------------------------------- 

chorus 
------------------------------------------------------------------------------ 
------------------------------------------------------------------------------ 
------------------------------------------------------------------------------ 
---------------5-5-5-5-5-5-5-------------------------------------------------- 
-5-5-5-5-5-5-5-3-3-3-3-3-3-3-5-x-x-x-x-x-5-x-x-x-x-x-------------------------- 
-3-3-3-3-3-3-3---------------3-x-x-x-x-x-3-x-x-x-x-x-------------------------- 

bridge 
---------------------------------------------------------------|-------------- 
---------------------------------------------------------------|-------------- 
---------------------------------------------------------------|-------------- 
-7-7-7-7-7-7-7-7-5-5-5-5-5-5-5-5-7-7-7-7-7-7-7-7-5-5-5-5-5-5-5-|-7--5--------- 
-5-5-5-5-5-5-5-5-3-3-3-3-3-3-3-3-5-5-5-5-5-5-5-5-3-3-3-3-3-3-3-|-5--3--5--3--- 
---------------------------------------------------------------|--------------
Tap to rate this tab
# A B C D E F G H I J K L M N O P Q R S T U V W X Y Z