Song name
# A B C D E F G H I J K L M N O P Q R S T U V W X Y Z

Osker - Fuck Me tab

great song by a now defunct so-cal skate punk band called OSKER
tabbed by scuz
standard tuning


Intro---bass plays in between strums... till now!!!
e-------------------------------------------------------------------|
b-------------------------------------------------------------------|
g-----------------------------------------------7-7-7-------7-7-----|
d----7--------7--------7--------7--xxxxx--7-7-7-7-7-7-7-7-9-7-7-----|play X 4
a----7--------7--------7--------7--xxxxx--7-7-7-5-5-5-7-7-9-5-5-----|
E----5--------5--------5--------5--xxxxx--5-5-5-------5-5-7---------|


Verse: I guess you won't understand, you meant a lot to me...
 pm-----------------------------------------------------------

e-------------------------------------------------------------------|
b-------------------------------------------------------------------|
g----------------------7-7-7-7-7-7-7-7-7-7---------------------7-7--|
d--7-7-7-7-7-7-7-7-7-7-7-7-7-7-7-7-7-7-7-7-7-7-7-7-7-7-7-7-7-7-7-7--|
a--7-7-7-7-7-7-7-7-7-7-5-5-5-5-5-5-5-5-5-5-7-7-7-7-7-7-7-7-7-7-5-5--|
E--5-5-5-5-5-5-5-5-5-5---------------------5-5-5-5-5-5-5-5-5-5------|
verse continued:      pre chorus starts here: 

                  " You are now where i was then how the f*ck does it... 
e----------------|-------------------------------------------------|
b----------------|-------------------------------------------------|
g-7-7-7-7-7-7-7-7|-------------------------------------------------|
d-7-7-7-7-7-7-7-7|-4-4-4-4-4-4-4-4--2-2-2-2-2-2-2-2-4-4-4-4-4-4-4-4|
a-5-5-5-5-5-5-5-5|-4-4-4-4-4-4-4-4--2-2-2-2-2-2-2-2-4-4-4-4-4-4-4-4|
E----------------|-2-2-2-2-2-2-2-2--0-0-0-0-0-0-0-0-2-2-2-2-2-2-2-2|

                      Chorus: " It's a pity cuz i tried so hard...
e--------------------|-----------------------------------------------|
b--------------------|-----------------------------------------------|
g-7-7-7-7-7-7-7-7----|------------------9-7-7-7-7-7-7-7-7------------|
d-7-7-7-7-7-7-7-7----|-7-7-7-7-7-7-7-7--9-7-7-7-7-7-7-7-7--4-4-4-4-4-|
a-5-5-5-5-5-5-5-5----|-7-7-7-7-7-7-7-7--7-5-5-5-5-5-5-5-5--4-4-4-4-4-|
E--------------------|-5-5-5-5-5-5-5-5---------------------2-2-2-2-2-|

e--------------------------------------------------------------------|
b--------------------------------------------------------------------|
g-------7-7-7-7-7-7-7-7----------------------------------------------|
d-4-4-4-7-7-7-7-7-7-7-7----------------------------------------------|
a-4-4-4-5-5-5-5-5-5-5-5----------------------------------------------|
E-2-2-2--------------------------------------------------------------|


Verse again 
chorus again
verse again 
chorus again
Tap to rate this tab
# A B C D E F G H I J K L M N O P Q R S T U V W X Y Z