Song name
# A B C D E F G H I J K L M N O P Q R S T U V W X Y Z

Oslo Gospel Choir - En Stjerne Skinner I Natt tab

En stjerne skinner i natt

e|--7-9-10----9-10---9-10---------------------------|
B|---------10------8------10-------2-3-3-2-3--------|
G|-----------------------------4-4------------------|
D|--------------------------------------------------|
A|--------------------------------------------------|
E|--------------------------------------------------|

e|--------------------------------------------------|
B|--3-5-7---8-7-5-3--0-2-3---3-5--------------------|
G|--------4----------------2------------------------|
D|--------------------------------------------------|
A|--------------------------------------------------|
E|--------------------------------------------------|

e|--2--3--5--5--3--2--0--2--5--3--2--0--------------|
B|--------------------------------------3-3---------|
G|--------------------------------------------------|
D|--------------------------------------------------|
A|--------------------------------------------------|
E|--------------------------------------------------|

e|--7-9-10-----------------7-9-10-----9-7-5---------|
B|---------10--7-7-5-3------------10----------------|
G|--------------------------------------------------|
D|--------------------------------------------------|
A|--------------------------------------------------|
E|--------------------------------------------------|

e|--------------------------7-5-2-0-----------------|
B|--3-3-3-10--7-7-5-3---------------3-2-3-----------|
G|--------------------------------------------------|
D|--------------------------------------------------|
A|--------------------------------------------------|
E|--------------------------------------------------|



Hope you enjoy :)
Tap to rate this tab
# A B C D E F G H I J K L M N O P Q R S T U V W X Y Z