Oslo Gospel Choir - En Stjerne Skinner I Natt chords

Highlighted       Show chord diagrams

Intro:
e-------9-10---------9-10-------9-10---------------------------|
B---12--------10-----------8----------10-----------------------|
G--------------------------------------------4s6--7--7--6--7---|
D--------------------------------------------------------------|
A--------------------------------------------------------------|
E--------------------------------------------------------------|


e-------9-10-10------------------------------------------------|
B---12---------------------------------------------------------|
G--------------------------------------------------------------|
D--------------------------------------------------------------|
A--------------------------------------------------------------|
E--------------------------------------------------------------|



D	  G       A   D
Nå er den hellige time
G         D         A
vi står i stjerneskinn
D        G        A   D
og hører klokkene kime
G         A     D
nå ringes julen inn

ref.
G       D      F#    Hm
Englene synger høyt i kor
G         D           E A
synger om fred på vår jord
G          D     F#   Hm
verden var aldri helt forlatt
G  D       A         D
en stjerne skinner i natt


D         G          A    D
En nyfødt kjærlighet sover
G         D       A
nå er guds himmel nær
D         G        A     D
vår lange vandring er over
G           A        D
stjernen har stanset her


G       D      F#    Hm
Englene synger høyt i kor
G         D           E A
synger om fred på vår jord
G          D     F#   Hm
verden var aldri helt forlatt
G  D        A         D
en stjerne skinner i natt


D          G        A      D
Se himmlen ligger og hviler
G          D    A
på jordens gule strå
D            G           A    D
vi står rundt krybben og smiler
G         A      D
for vi er fremme nå


G          D        F#     Hm
Her kan vi drømme om den fred
G           D      E A7
som vi skal eie en gang.
G         D        F#     Hm
For dette barn har himlen med
(G) D      A          D
og jorden fylles med sang.
Tap to rate this tab
 
# A B C D E F G H I J K L M N O P Q R S T U V W X Y Z