Song name
# A B C D E F G H I J K L M N O P Q R S T U V W X Y Z

Oslo Gospel Choir - En Stjerne Skinner I Natt tab

Basert pе en naturlig moll-skala, kan flyttes opp og ned halsen.

Tab:

Nе er den hellige time

e|-----------------------------------------------------------------|
B|-----------------------------------------------------------------|
G|---9--11--13-----13--11--8--9------------------------------------|
D|--------------11-------------------------------------------------|
A|-----------------------------------------------------------------|
E|-----------------------------------------------------------------|

vi stеr i stjerneskinn

e|-----------------------------------------------------------------|
B|-----------------------------------------------------------------|
G|---------9--11--13--11-------------------------------------------|
D|--9--11----------------------------------------------------------|
A|-----------------------------------------------------------------|
E|-----------------------------------------------------------------|

og hшrer klokkene kime

e|---------------------------------------------------------------|
B|--9--10--9--12--10--9------------------------------------------|
G|-----------------------11--9-----------------------------------|
D|---------------------------------------------------------------|
A|---------------------------------------------------------------|
E|---------------------------------------------------------------|

nе ringes julen inn

e|-----------------------------------------------------------------|
B|-----------------------------------------------------------------|
G|---------9--9--8--9----------------------------------------------|
D|--9--11----------------------------------------------------------|
A|-----------------------------------------------------------------|
E|-----------------------------------------------------------------|


ref.
Englene synger hшyt i kor

e|--9--11--12-------------------------------------------------------------|
B|-------------12--(10)--9------------------------------------------------|
G|-------------------------11--(8)--9-------------------------------------|
D|------------------------------------------------------------------------|
A|------------------------------------------------------------------------|
E|------------------------------------------------------------------------|


synger om fred pе vеr jord

e|--9--11--12-----------------------------------------------------------|
B|-------------12--10--9------------------------------------------------|
G|------------------------11--(11/13\11 spilles hvis шnskelig)----------|
D|----------------------------------------------------------------------|
A|----------------------------------------------------------------------|
E|----------------------------------------------------------------------|


verden var aldri helt forlatt

e|------------------------------------------------------------------|
B|------------12--(10)--9-------------------------------------------|
G|---------9--------------11--9-------------------------------------|
D|--9--11-----------------------------------------------------------|
A|------------------------------------------------------------------|
E|------------------------------------------------------------------|

en stjerne skinner i natt

e|--11--9-------------------      ---------------------------------------|
B|---------12--9------------      ---------------------------------------|
G|----------------11--8--9--  ELLER: -----------9--9--9--8--9------------|
D|--------------------------      ---------9--11-------------------------|
A|--------------------------      ---------------------------------------|
E|--------------------------      ---------------------------------------|


| /  slide up
| \  slide down
| h  hammer-on
| p  pull-off
| ~  vibrato
| +  harmonic
| x  Mute note

Tab av Johannes Volden
Tap to rate this tab
 
# A B C D E F G H I J K L M N O P Q R S T U V W X Y Z