Song name
# A B C D E F G H I J K L M N O P Q R S T U V W X Y Z

Ostava - Baby tab

-----------------------------------------------------------------------
			     BABY - Ostava
-----------------------------------------------------------------------
Tabbed by: RomStapleton (Romain Q.)
Email: -

Band website : http://www.ostava.com/

Please rate and comment ! Have fun !

Tuning: eBGDAE (Standard)

Intro -


e|-----------------------------------|
B|---7--7--7--7-7-7--7--7-8-8-7------|
G|---7--7--7--7-7-7--7--7-7-7-7------|
D|---6--6--6--6-6-6--6--6-6-6-6------| x3
A|---7--7--7--7-7-7--7--7-7-7-7------|
E|-----------------------------------|

Then end of the intro :

e|-------------------------------|
B|---7--7--7--7-7-7-7-7-7-7------|
G|---7--7--7--7-7-7-7-7-7-7------|
D|---6--6--6--6-6-6-6-6-6-6------|
A|---7--7--7--7-7-7-7-7-7-7------|
E|-------------------------------|

Verse - From 0:16 to 0:30, play the intro riff, then :

e|---4--4--4--4-4-4--4--4-4-4-4--------|
B|---5--5--5--5-5-5--5--5-5-5-5--------|
G|---6--6--6--6-6-6--6--6-7-7-6--------|
D|---6--6--6--6-6-6--6--6-6-6-6--------| x2
A|---4--4--4--4-4-4--4--4-4-4-4--------|
E|-------------------------------------|

Then from 0:36 to 0:42:

e|--5--5--5--5-5-5--5--5-5-5-5-2--2--2--2-2-2--2--2-2-2-2----|
B|--5--5--5--5-5-5--5--5-5-5-5-2--2--2--2-2-2--2--2-2-2-2----|
G|--6--6--6--6-6-6--6--6-6-6-6-3--3--3--3-3-3--3--3-3-3-3----|
D|--7--7--7--7-7-7--7--7-7-7-7-4--4--4--4-4-4--4--4-4-4-4----|
A|--7--7--7--7-7-7--7--7-7-7-7-4--4--4--4-4-4--4--4-4-4-4----|
E|--5--5--5--5-5-5--5--5-5-5-5-2--2--2--2-2-2--2--2-2-2-2----|

Pre-chorus
e|---7-----------7-----------7-------------|
B|---7-----------7-----------7-------------|
G|---8-----------8-----------8-------------|
D|---9-----------9-----------9-------------|
A|---9-----------9-----------9-------------|
E|---7-----------7-----------7-------------|
    let the chord ring

Pre-chorus 2
e|---4-4-4-4-4-4-4-4-|
B|---4-4-4-4-4-4-4-4-|
G|---5-5-5-5-5-5-5-5-|
D|---6-6-6-6-6-6-6-6-|
A|---6-6-6-6-6-6-6-6-|
E|---4-4-4-4-4-4-4-4-|

Chorus :

e|---------------------------------------------------------------------------|
B|--------------------------------------------------------------------9--12--|
G|---11--9----------11--11--9--11--9-----11--9--------11--11--9---11---------|
D|----------11(11)-------------------------------11--------------------------|x1
A|---------------------------------------------------------------------------|
E|---------------------------------------------------------------------------|

e|--------------------------------------------------|
B|---------9-9-------12--12--------9-9-----12-12----|
G|--------------9-9--------------------9-9----------|
D|---11-11-------------------11-11------------------| x2
A|--------------------------------------------------|
E|--------------------------------------------------|

Finish 1st chorus with :
e|------------|
B|------------|
G|---12b13----|
D|------------|
A|------------|
E|------------|


Then back to the verse, etc.

Outro :


e|------------------------------|
B|------------------------------|
G|---6--6--6--6-6-6--6--6-7-7-6-|
D|------------------------------|x2
A|---4--4--4--4-4-4--4--4-5-5-4-|
E|------------------------------|

e|--------------------------------------|
B|--------------------------------------|
G|---9--9--9--9-11-9--9--9-11-11-9------|
D|--------------------------------------|x2
A|---7--7--7--7--9-7--7--7--9--9-7------|
E|--------------------------------------|

Finish with :

e|---2--2--2--2-2-4-|
B|---2--2--2--2-2-4-|
G|---3--3--3--3-3-5-|
D|---4--4--4--4-4-6-|
A|---4--4--4--4-4-6-|
E|---2--2--2--2-2-4-|


Structure :

Intro
Verse
Pre-Chorus 1
Verse
Pre-Chorus 1+2
Chorus x2
Verse
Pre-Chorus 1+2
Chorus x4
Outro


| /  slide up
| \  slide down
| h  hammer-on
| p  pull-off
| ~  vibrato
| +  harmonic
| x  Mute note
====================================================================
Tap to rate this tab
# A B C D E F G H I J K L M N O P Q R S T U V W X Y Z